  0
SECTION
  2
HEADER
  9
$ACADVER
  1
AC1006
  9
$AXISMODE
 70
     0
  9
$AXISUNIT
 10
0.0625
 20
0.0625
  9
$CECOLOR
 62
0
  9
$CELTYPE
  6
CONTINUOUS
  9
$CLAYER
  8
LAYER1
  9
$EXTMIN
 10
0
 20
0
  9
$EXTMAX
 10
7.6667
 20
10.8034
  9
$LIMMIN
 10
0
 20
0
  9
$LIMMAX
 10
7.6667
 20
10.8034
  9
$GRIDMODE
 70
     0
  9
$GRIDUNIT
 10
0.125
 20
0.125
  9
$MIRRTEXT
 70
     1
  9
$SNAPMODE
 70
     1
  9
$SNAPUNIT
 10
0.125
 20
0
  9
$SNAPSTYLE
 70
     0
  9
$SPLINESEGS
 70
     8
  9
$SPLINETYPE
 70
     6
  0
ENDSEC
  0
SECTION
  2
TABLES
  0TABLE  2VPORT 70     2  0VPORT  2*ACTIVE 70     0 100.0 200.0 111.0 211.0 1213.01087 224.5 130.0 230.0 141.0 241.0 150.0 250.0 160.0 260.0 361.0 170.0 270.0 370.0 409.0 412.891304 4250.0 430.0 440.0 500.0 510.0 71     0 72   100 73     1 74     1 75     0 76     0 77     0 78     0  0ENDTAB
  0
TABLE
  2
LTYPE
 70
     1
  0
LTYPE
  2
CONTINUOUS
 70
    64
  3
Descriptive Text
 72
    65
 73
     0
 40
0
  0
ENDTAB
  0
TABLE
  2
LAYER
 70
     1
  0
LAYER
  2
LAYER1
 70
     0
 62
     7
  6
CONTINUOUS
  0
ENDTAB
  0TABLE  2STYLE 70     1  0STYLE  2STANDARD 70     0 400.0 411.0 500.0 71     0 420.2  3txt  4  0ENDTAB
  0
TABLE
  2
VIEW
 70
     0
  0
ENDTAB
  0
TABLE
  2
UCS
 70
     0
  0
ENDTAB
  0
TABLE
  2
DWGMGR
 70
     0
  0
ENDTAB
  0
ENDSEC
  0
SECTION
  2
BLOCKS
  0
BLOCK
  8
LAYER1
  2
Group1
 70
     0
 10
0
 20
0
 30
0
  0
LINE
  8
LAYER1
  6
CONTINUOUS
 62
     7
 10
5.1667
 20
4.0534
 30
0
 11
4.6667
 21
4.0534
 31
0
  0
LINE
  8
LAYER1
  6
CONTINUOUS
 62
     7
 10
5.1389
 20
4.0534
 30
0
 11
5.1667
 21
4.0673
 31
0
  0
LINE
  8
LAYER1
  6
CONTINUOUS
 62
     7
 10
5.0139
 20
4.0534
 30
0
 11
5.0694
 21
4.1089
 31
0
  0
LINE
  8
LAYER1
  6
CONTINUOUS
 62
     7
 10
4.875
 20
4.0534
 30
0
 11
4.9444
 21
4.1228
 31
0
  0
LINE
  8
LAYER1
  6
CONTINUOUS
 62
     7
 10
4.75
 20
4.0534
 30
0
 11
4.8056
 21
4.1089
 31
0
  0
LINE
  8
LAYER1
  6
CONTINUOUS
 62
     7
 10
4.8889
 20
4.1923
 30
0
 11
4.9306
 21
4.2339
 31
0
  0
LINE
  8
LAYER1
  6
CONTINUOUS
 62
     7
 10
4.8889
 20
4.3312
 30
0
 11
4.9306
 21
4.3728
 31
0
  0
LINE
  8
LAYER1
  6
CONTINUOUS
 62
     7
 10
4.8889
 20
4.4562
 30
0
 11
4.9306
 21
4.4978
 31
0
  0
LINE
  8
LAYER1
  6
CONTINUOUS
 62
     7
 10
4.8889
 20
4.5951
 30
0
 11
4.9306
 21
4.6367
 31
0
  0
LINE
  8
LAYER1
  6
CONTINUOUS
 62
     7
 10
4.8889
 20
4.7339
 30
0
 11
4.9306
 21
4.7756
 31
0
  0
LINE
  8
LAYER1
  6
CONTINUOUS
 62
     7
 10
4.8889
 20
4.8589
 30
0
 11
4.9306
 21
4.9006
 31
0
  0
LINE
  8
LAYER1
  6
CONTINUOUS
 62
     7
 10
5.0139
 20
4.9839
 30
0
 11
5.0833
 21
5.0534
 31
0
  0
LINE
  8
LAYER1
  6
CONTINUOUS
 62
     7
 10
4.875
 20
4.9701
 30
0
 11
4.9444
 21
5.0534
 31
0
  0
LINE
  8
LAYER1
  6
CONTINUOUS
 62
     7
 10
4.7639
 20
4.9978
 30
0
 11
4.8194
 21
5.0534
 31
0
  0
LINE
  8
LAYER1
  6
CONTINUOUS
 62
     7
 10
4.6667
 20
5.0256
 30
0
 11
4.6806
 21
5.0534
 31
0
  0
LINE
  8
LAYER1
  6
CONTINUOUS
 62
     7
 10
5.0556
 20
4.0534
 30
0
 11
5.0972
 21
4.0951
 31
0
  0
LINE
  8
LAYER1
  6
CONTINUOUS
 62
     7
 10
4.9167
 20
4.0534
 30
0
 11
4.9861
 21
4.1089
 31
0
  0
LINE
  8
LAYER1
  6
CONTINUOUS
 62
     7
 10
4.7917
 20
4.0534
 30
0
 11
4.8472
 21
4.1089
 31
0
  0
LINE
  8
LAYER1
  6
CONTINUOUS
 62
     7
 10
4.8889
 20
4.1506
 30
0
 11
4.9306
 21
4.1923
 31
0
  0
LINE
  8
LAYER1
  6
CONTINUOUS
 62
     7
 10
4.6667
 20
4.0534
 30
0
 11
4.7083
 21
4.0951
 31
0
  0
LINE
  8
LAYER1
  6
CONTINUOUS
 62
     7
 10
4.8889
 20
4.2895
 30
0
 11
4.9306
 21
4.3312
 31
0
  0
LINE
  8
LAYER1
  6
CONTINUOUS
 62
     7
 10
4.8889
 20
4.4145
 30
0
 11
4.9306
 21
4.4562
 31
0
  0
LINE
  8
LAYER1
  6
CONTINUOUS
 62
     7
 10
4.8889
 20
4.5534
 30
0
 11
4.9306
 21
4.5951
 31
0
  0
LINE
  8
LAYER1
  6
CONTINUOUS
 62
     7
 10
4.8889
 20
4.6784
 30
0
 11
4.9306
 21
4.7201
 31
0
  0
LINE
  8
LAYER1
  6
CONTINUOUS
 62
     7
 10
4.8889
 20
4.8173
 30
0
 11
4.9306
 21
4.8589
 31
0
  0
LINE
  8
LAYER1
  6
CONTINUOUS
 62
     7
 10
5.0694
 20
4.9978
 30
0
 11
5.125
 21
5.0534
 31
0
  0
LINE
  8
LAYER1
  6
CONTINUOUS
 62
     7
 10
4.8889
 20
4.9423
 30
0
 11
5
 21
5.0534
 31
0
  0
LINE
  8
LAYER1
  6
CONTINUOUS
 62
     7
 10
4.8056
 20
4.9978
 30
0
 11
4.8611
 21
5.0534
 31
0
  0
ENDBLK
  8
LAYER1
  0
BLOCK
  8
LAYER1
  2
Group2
 70
     0
 10
0
 20
0
 30
0
  0
INSERT
  8
LAYER1
  2
Group1
 10
0
 20
0
 30
0
  0
ENDBLK
  8
LAYER1
  0
BLOCK
  8
LAYER1
  2
Group3
 70
     0
 10
0
 20
0
 30
0
  0
POLYLINE
  8
LAYER1
  6
CONTINUOUS
 62
     7
 66
     1
 70
     0
 40
0.0078
 41
0.0078
  0
VERTEX
  8
LAYER1
 10
4.9306
 20
4.9423
 30
0
 70
     0
  0
VERTEX
  8
LAYER1
 10
4.9306
 20
4.9423
 30
0
 70
     0
  0
VERTEX
  8
LAYER1
 10
4.9444
 20
4.9701
 30
0
 70
     0
  0
VERTEX
  8
LAYER1
 10
4.9444
 20
4.9701
 30
0
 70
     0
  0
VERTEX
  8
LAYER1
 10
4.9583
 20
4.9701
 30
0
 70
     0
  0
VERTEX
  8
LAYER1
 10
4.9583
 20
4.9701
 30
0
 70
     0
  0
VERTEX
  8
LAYER1
 10
4.9722
 20
4.9839
 30
0
 70
     0
  0
SEQEND
  0
POLYLINE
  8
LAYER1
  6
CONTINUOUS
 62
     7
 66
     1
 70
     0
 40
0.0078
 41
0.0078
  0
VERTEX
  8
LAYER1
 10
4.8611
 20
4.9839
 30
0
 70
     0
  0
VERTEX
  8
LAYER1
 10
4.875
 20
4.9839
 30
0
 70
     0
  0
VERTEX
  8
LAYER1
 10
4.875
 20
4.9701
 30
0
 70
     0
  0
VERTEX
  8
LAYER1
 10
4.875
 20
4.9701
 30
0
 70
     0
  0
VERTEX
  8
LAYER1
 10
4.8889
 20
4.9562
 30
0
 70
     0
  0
VERTEX
  8
LAYER1
 10
4.8889
 20
4.9423
 30
0
 70
     0
  0
VERTEX
  8
LAYER1
 10
4.8889
 20
4.9423
 30
0
 70
     0
  0
SEQEND
  0
POLYLINE
  8
LAYER1
  6
CONTINUOUS
 62
     7
 66
     1
 70
     0
 40
0.0078
 41
0.0078
  0
VERTEX
  8
LAYER1
 10
5.1667
 20
5.0395
 30
0
 70
     0
  0
VERTEX
  8
LAYER1
 10
5.1667
 20
5.0256
 30
0
 70
     0
  0
VERTEX
  8
LAYER1
 10
5.1667
 20
5.0256
 30
0
 70
     0
  0
VERTEX
  8
LAYER1
 10
5.1528
 20
5.0117
 30
0
 70
     0
  0
VERTEX
  8
LAYER1
 10
5.1528
 20
5.0117
 30
0
 70
     0
  0
VERTEX
  8
LAYER1
 10
5.1389
 20
5.0117
 30
0
 70
     0
  0
VERTEX
  8
LAYER1
 10
5.125
 20
5.0117
 30
0
 70
     0
  0
SEQEND
  0
LINE
  8
LAYER1
  6
CONTINUOUS
 62
     7
 10
5.125
 20
5.0117
 30
0
 11
4.9722
 21
4.9839
 31
0
  0
LINE
  8
LAYER1
  6
CONTINUOUS
 62
     7
 10
5.1667
 20
5.0534
 30
0
 11
5.1667
 21
5.0395
 31
0
  0
POLYLINE
  8
LAYER1
  6
CONTINUOUS
 62
     7
 66
     1
 70
     0
 40
0.0078
 41
0.0078
  0
VERTEX
  8
LAYER1
 10
4.6944
 20
5.0117
 30
0
 70
     0
  0
VERTEX
  8
LAYER1
 10
4.6806
 20
5.0117
 30
0
 70
     0
  0
VERTEX
  8
LAYER1
 10
4.6806
 20
5.0117
 30
0
 70
     0
  0
VERTEX
  8
LAYER1
 10
4.6667
 20
5.0395
 30
0
 70
     0
  0
VERTEX
  8
LAYER1
 10
4.6667
 20
5.0534
 30
0
 70
     0
  0
SEQEND
  0
LINE
  8
LAYER1
  6
CONTINUOUS
 62
     7
 10
4.6944
 20
5.0117
 30
0
 11
4.8611
 21
4.9839
 31
0
  0
LINE
  8
LAYER1
  6
CONTINUOUS
 62
     7
 10
5.1667
 20
5.0534
 30
0
 11
4.6667
 21
5.0534
 31
0
  0
POLYLINE
  8
LAYER1
  6
CONTINUOUS
 62
     7
 66
     1
 70
     0
 40
0.0078
 41
0.0078
  0
VERTEX
  8
LAYER1
 10
4.6667
 20
4.0534
 30
0
 70
     0
  0
VERTEX
  8
LAYER1
 10
4.6667
 20
4.0534
 30
0
 70
     0
  0
VERTEX
  8
LAYER1
 10
4.6806
 20
4.0812
 30
0
 70
     0
  0
VERTEX
  8
LAYER1
 10
4.6806
 20
4.0812
 30
0
 70
     0
  0
VERTEX
  8
LAYER1
 10
4.6806
 20
4.0812
 30
0
 70
     0
  0
VERTEX
  8
LAYER1
 10
4.6944
 20
4.0951
 30
0
 70
     0
  0
VERTEX
  8
LAYER1
 10
4.6944
 20
4.0951
 30
0
 70
     0
  0
SEQEND
  0
POLYLINE
  8
LAYER1
  6
CONTINUOUS
 62
     7
 66
     1
 70
     0
 40
0.0078
 41
0.0078
  0
VERTEX
  8
LAYER1
 10
4.8889
 20
4.1506
 30
0
 70
     0
  0
VERTEX
  8
LAYER1
 10
4.8889
 20
4.1367
 30
0
 70
     0
  0
VERTEX
  8
LAYER1
 10
4.8889
 20
4.1367
 30
0
 70
     0
  0
VERTEX
  8
LAYER1
 10
4.875
 20
4.1228
 30
0
 70
     0
  0
VERTEX
  8
LAYER1
 10
4.875
 20
4.1089
 30
0
 70
     0
  0
VERTEX
  8
LAYER1
 10
4.8611
 20
4.1089
 30
0
 70
     0
  0
VERTEX
  8
LAYER1
 10
4.8472
 20
4.1089
 30
0
 70
     0
  0
SEQEND
  0
LINE
  8
LAYER1
  6
CONTINUOUS
 62
     7
 10
4.6944
 20
4.0951
 30
0
 11
4.8472
 21
4.1089
 31
0
  0
LINE
  8
LAYER1
  6
CONTINUOUS
 62
     7
 10
4.8889
 20
4.9423
 30
0
 11
4.8889
 21
4.1506
 31
0
  0
POLYLINE
  8
LAYER1
  6
CONTINUOUS
 62
     7
 66
     1
 70
     0
 40
0.0078
 41
0.0078
  0
VERTEX
  8
LAYER1
 10
4.9722
 20
4.1089
 30
0
 70
     0
  0
VERTEX
  8
LAYER1
 10
4.9722
 20
4.1089
 30
0
 70
     0
  0
VERTEX
  8
LAYER1
 10
4.9583
 20
4.1089
 30
0
 70
     0
  0
VERTEX
  8
LAYER1
 10
4.9444
 20
4.1228
 30
0
 70
     0
  0
VERTEX
  8
LAYER1
 10
4.9444
 20
4.1228
 30
0
 70
     0
  0
VERTEX
  8
LAYER1
 10
4.9306
 20
4.1367
 30
0
 70
     0
  0
VERTEX
  8
LAYER1
 10
4.9306
 20
4.1506
 30
0
 70
     0
  0
SEQEND
  0
LINE
  8
LAYER1
  6
CONTINUOUS
 62
     7
 10
4.9306
 20
4.9423
 30
0
 11
4.9306
 21
4.1506
 31
0
  0
POLYLINE
  8
LAYER1
  6
CONTINUOUS
 62
     7
 66
     1
 70
     0
 40
0.0078
 41
0.0078
  0
VERTEX
  8
LAYER1
 10
5.125
 20
4.0951
 30
0
 70
     0
  0
VERTEX
  8
LAYER1
 10
5.1389
 20
4.0951
 30
0
 70
     0
  0
VERTEX
  8
LAYER1
 10
5.1528
 20
4.0812
 30
0
 70
     0
  0
VERTEX
  8
LAYER1
 10
5.1528
 20
4.0812
 30
0
 70
     0
  0
VERTEX
  8
LAYER1
 10
5.1667
 20
4.0673
 30
0
 70
     0
  0
VERTEX
  8
LAYER1
 10
5.1667
 20
4.0534
 30
0
 70
     0
  0
VERTEX
  8
LAYER1
 10
5.1667
 20
4.0534
 30
0
 70
     0
  0
SEQEND
  0
LINE
  8
LAYER1
  6
CONTINUOUS
 62
     7
 10
5.125
 20
4.0951
 30
0
 11
4.9722
 21
4.1089
 31
0
  0
INSERT
  8
LAYER1
  2
Group2
 10
0
 20
0
 30
0
  0
ENDBLK
  8
LAYER1
  0
BLOCK
  8
LAYER1
  2
Group4
 70
     0
 10
0
 20
0
 30
0
  0
LINE
  8
LAYER1
  6
CONTINUOUS
 62
     7
 10
5.7917
 20
8.4562
 30
0
 11
5.8333
 21
8.4978
 31
0
  0
LINE
  8
LAYER1
  6
CONTINUOUS
 62
     7
 10
5.5278
 20
8.4562
 30
0
 11
5.5694
 21
8.4978
 31
0
  0
LINE
  8
LAYER1
  6
CONTINUOUS
 62
     7
 10
5.2639
 20
8.4562
 30
0
 11
5.3056
 21
8.4978
 31
0
  0
LINE
  8
LAYER1
  6
CONTINUOUS
 62
     7
 10
5
 20
8.4562
 30
0
 11
5.0417
 21
8.4978
 31
0
  0
LINE
  8
LAYER1
  6
CONTINUOUS
 62
     7
 10
5.7083
 20
8.4562
 30
0
 11
5.75
 21
8.4978
 31
0
  0
LINE
  8
LAYER1
  6
CONTINUOUS
 62
     7
 10
5.4444
 20
8.4562
 30
0
 11
5.4861
 21
8.4978
 31
0
  0
LINE
  8
LAYER1
  6
CONTINUOUS
 62
     7
 10
5.1806
 20
8.4562
 30
0
 11
5.2222
 21
8.4978
 31
0
  0
ENDBLK
  8
LAYER1
  0
BLOCK
  8
LAYER1
  2
Group5
 70
     0
 10
0
 20
0
 30
0
  0
POLYLINE
  8
LAYER1
  6
CONTINUOUS
 62
     7
 66
     1
 70
     0
 40
0.0039
 41
0.0039
  0
VERTEX
  8
LAYER1
 10
4.8611
 20
8.4978
 30
0
 70
     0
  0
VERTEX
  8
LAYER1
 10
5.875
 20
8.4978
 30
0
 70
     0
  0
VERTEX
  8
LAYER1
 10
5.875
 20
8.4423
 30
0
 70
     0
  0
VERTEX
  8
LAYER1
 10
4.8611
 20
8.4423
 30
0
 70
     0
  0
VERTEX
  8
LAYER1
 10
4.8611
 20
8.4978
 30
0
 70
     0
  0
SEQEND
  0
INSERT
  8
LAYER1
  2
Group4
 10
0
 20
0
 30
0
  0
ENDBLK
  8
LAYER1
  0
BLOCK
  8
LAYER1
  2
Group6
 70
     0
 10
0
 20
0
 30
0
  0
LINE
  8
LAYER1
  6
CONTINUOUS
 62
     7
 10
4.9167
 20
8.4562
 30
0
 11
4.9583
 21
8.4978
 31
0
  0
POLYLINE
  8
LAYER1
  6
CONTINUOUS
 62
     7
 66
     1
 70
     0
 40
0.0039
 41
0.0039
  0
VERTEX
  8
LAYER1
 10
2.3889
 20
8.5395
 30
0
 70
     0
  0
VERTEX
  8
LAYER1
 10
2.5694
 20
8.5395
 30
0
 70
     0
  0
VERTEX
  8
LAYER1
 10
2.5694
 20
8.4423
 30
0
 70
     0
  0
VERTEX
  8
LAYER1
 10
2.3889
 20
8.4423
 30
0
 70
     0
  0
VERTEX
  8
LAYER1
 10
2.3889
 20
8.5395
 30
0
 70
     0
  0
SEQEND
  0
ENDBLK
  8
LAYER1
  0
BLOCK
  8
LAYER1
  2
Group7
 70
     0
 10
0
 20
0
 30
0
  0
LINE
  8
LAYER1
  6
CONTINUOUS
 62
     7
 10
3.9722
 20
8.4701
 30
0
 11
4
 21
8.4839
 31
0
  0
ENDBLK
  8
LAYER1
  0
BLOCK
  8
LAYER1
  2
Group8
 70
     0
 10
0
 20
0
 30
0
  0
LINE
  8
LAYER1
  6
CONTINUOUS
 62
     7
 10
2.4722
 20
8.4562
 30
0
 11
2.5556
 21
8.5395
 31
0
  0
CIRCLE
  8
LAYER1
 10
3.9653
 20
8.5048
 30
0
 40
0.0625
  0
INSERT
  8
LAYER1
  2
Group7
 10
0
 20
0
 30
0
  0
ENDBLK
  8
LAYER1
  0
BLOCK
  8
LAYER1
  2
Group9
 70
     0
 10
0
 20
0
 30
0
  0
LINE
  8
LAYER1
  6
CONTINUOUS
 62
     7
 10
3.9028
 20
8.4839
 30
0
 11
3.9722
 21
8.5534
 31
0
  0
POLYLINE
  8
LAYER1
  6
CONTINUOUS
 62
     7
 66
     1
 70
     0
 40
0.0019
 41
0.0019
  0
VERTEX
  8
LAYER1
 10
0.8403
 20
6.5395
 30
0
 70
     0
  0
VERTEX
  8
LAYER1
 10
0.8591
 20
6.5357
 30
0
 70
     0
  0
VERTEX
  8
LAYER1
 10
0.8746
 20
6.5252
 30
0
 70
     0
  0
VERTEX
  8
LAYER1
 10
0.885
 20
6.5097
 30
0
 70
     0
  0
VERTEX
  8
LAYER1
 10
0.8889
 20
6.4909
 30
0
 70
     0
  0
SEQEND
  0
LINE
  8
LAYER1
  6
CONTINUOUS
 62
     7
 10
0.8333
 20
6.2895
 30
0
 11
0.8333
 21
6.5395
 31
0
  0
LINE
  8
LAYER1
  6
CONTINUOUS
 62
     7
 10
0.8333
 20
6.2895
 30
0
 11
1.1111
 21
6.2895
 31
0
  0
POLYLINE
  8
LAYER1
  6
CONTINUOUS
 62
     7
 66
     1
 70
     0
 40
0.0019
 41
0.0019
  0
VERTEX
  8
LAYER1
 10
1.0764
 20
6.3312
 30
0
 70
     0
  0
VERTEX
  8
LAYER1
 10
1.0952
 20
6.3273
 30
0
 70
     0
  0
VERTEX
  8
LAYER1
 10
1.1107
 20
6.3169
 30
0
 70
     0
  0
VERTEX
  8
LAYER1
 10
1.1212
 20
6.3014
 30
0
 70
     0
  0
VERTEX
  8
LAYER1
 10
1.125
 20
6.2826
 30
0
 70
     0
  0
SEQEND
  0
POLYLINE
  8
LAYER1
  6
CONTINUOUS
 62
     7
 66
     1
 70
     0
 40
0.0019
 41
0.0019
  0
VERTEX
  8
LAYER1
 10
0.9236
 20
6.3173
 30
0
 70
     0
  0
VERTEX
  8
LAYER1
 10
0.9048
 20
6.3211
 30
0
 70
     0
  0
VERTEX
  8
LAYER1
 10
0.8893
 20
6.3316
 30
0
 70
     0
  0
VERTEX
  8
LAYER1
 10
0.8788
 20
6.347
 30
0
 70
     0
  0
VERTEX
  8
LAYER1
 10
0.875
 20
6.3659
 30
0
 70
     0
  0
SEQEND
  0
LINE
  8
LAYER1
  6
CONTINUOUS
 62
     7
 10
0.875
 20
6.3728
 30
0
 11
0.875
 21
6.4978
 31
0
  0
ENDBLK
  8
LAYER1
  0
BLOCK
  8
LAYER1
  2
Group10
 70
     0
 10
0
 20
0
 30
0
  0
LINE
  8
LAYER1
  6
CONTINUOUS
 62
     7
 10
0.9167
 20
6.3312
 30
0
 11
1.0694
 21
6.3312
 31
0
  0
LINE
  8
LAYER1
  6
CONTINUOUS
 62
     7
 10
1.0556
 20
6.2895
 30
0
 11
1.0972
 21
6.3173
 31
0
  0
LINE
  8
LAYER1
  6
CONTINUOUS
 62
     7
 10
0.9306
 20
6.2895
 30
0
 11
0.9722
 21
6.3312
 31
0
  0
LINE
  8
LAYER1
  6
CONTINUOUS
 62
     7
 10
0.8333
 20
6.3312
 30
0
 11
0.875
 21
6.3728
 31
0
  0
LINE
  8
LAYER1
  6
CONTINUOUS
 62
     7
 10
0.8333
 20
6.4562
 30
0
 11
0.875
 21
6.4978
 31
0
  0
LINE
  8
LAYER1
  6
CONTINUOUS
 62
     7
 10
1.0972
 20
6.2895
 30
0
 11
1.1111
 21
6.3034
 31
0
  0
LINE
  8
LAYER1
  6
CONTINUOUS
 62
     7
 10
0.9722
 20
6.2895
 30
0
 11
1.0139
 21
6.3312
 31
0
  0
LINE
  8
LAYER1
  6
CONTINUOUS
 62
     7
 10
0.8333
 20
6.2895
 30
0
 11
0.8889
 21
6.3451
 31
0
  0
ENDBLK
  8
LAYER1
  0
BLOCK
  8
LAYER1
  2
Group11
 70
     0
 10
0
 20
0
 30
0
  0
INSERT
  8
LAYER1
  2
Group9
 10
0
 20
0
 30
0
  0
INSERT
  8
LAYER1
  2
Group10
 10
0
 20
0
 30
0
  0
ENDBLK
  8
LAYER1
  0
BLOCK
  8
LAYER1
  2
Group12
 70
     0
 10
0
 20
0
 30
0
  0
LINE
  8
LAYER1
  6
CONTINUOUS
 62
     7
 10
1.8889
 20
6.3312
 30
0
 11
2.0556
 21
6.3312
 31
0
  0
LINE
  8
LAYER1
  6
CONTINUOUS
 62
     7
 10
2
 20
6.2895
 30
0
 11
2.0417
 21
6.3312
 31
0
  0
LINE
  8
LAYER1
  6
CONTINUOUS
 62
     7
 10
1.8611
 20
6.2895
 30
0
 11
1.9028
 21
6.3312
 31
0
  0
LINE
  8
LAYER1
  6
CONTINUOUS
 62
     7
 10
1.8056
 20
6.3589
 30
0
 11
1.8472
 21
6.4006
 31
0
  0
LINE
  8
LAYER1
  6
CONTINUOUS
 62
     7
 10
1.8056
 20
6.4839
 30
0
 11
1.8472
 21
6.5256
 31
0
  0
LINE
  8
LAYER1
  6
CONTINUOUS
 62
     7
 10
2.0417
 20
6.2895
 30
0
 11
2.0833
 21
6.3173
 31
0
  0
LINE
  8
LAYER1
  6
CONTINUOUS
 62
     7
 10
1.9167
 20
6.2895
 30
0
 11
1.9583
 21
6.3312
 31
0
  0
LINE
  8
LAYER1
  6
CONTINUOUS
 62
     7
 10
1.8056
 20
6.3173
 30
0
 11
1.8472
 21
6.3589
 31
0
  0
LINE
  8
LAYER1
  6
CONTINUOUS
 62
     7
 10
1.8056
 20
6.4423
 30
0
 11
1.8472
 21
6.4839
 31
0
  0
ENDBLK
  8
LAYER1
  0
BLOCK
  8
LAYER1
  2
Group13
 70
     0
 10
0
 20
0
 30
0
  0
LINE
  8
LAYER1
  6
CONTINUOUS
 62
     7
 10
0.8333
 20
6.4145
 30
0
 11
0.875
 21
6.4562
 31
0
  0
LINE
  8
LAYER1
  6
CONTINUOUS
 62
     7
 10
1.8056
 20
6.2895
 30
0
 11
2.0972
 21
6.2895
 31
0
  0
LINE
  8
LAYER1
  6
CONTINUOUS
 62
     7
 10
1.8056
 20
6.2895
 30
0
 11
1.8056
 21
6.6228
 31
0
  0
POLYLINE
  8
LAYER1
  6
CONTINUOUS
 62
     7
 66
     1
 70
     0
 40
0.0019
 41
0.0019
  0
VERTEX
  8
LAYER1
 10
1.8125
 20
6.6228
 30
0
 70
     0
  0
VERTEX
  8
LAYER1
 10
1.8313
 20
6.619
 30
0
 70
     0
  0
VERTEX
  8
LAYER1
 10
1.8468
 20
6.6085
 30
0
 70
     0
  0
VERTEX
  8
LAYER1
 10
1.8573
 20
6.5931
 30
0
 70
     0
  0
VERTEX
  8
LAYER1
 10
1.8611
 20
6.5742
 30
0
 70
     0
  0
SEQEND
  0
POLYLINE
  8
LAYER1
  6
CONTINUOUS
 62
     7
 66
     1
 70
     0
 40
0.0019
 41
0.0019
  0
VERTEX
  8
LAYER1
 10
1.8958
 20
6.3173
 30
0
 70
     0
  0
VERTEX
  8
LAYER1
 10
1.877
 20
6.3211
 30
0
 70
     0
  0
VERTEX
  8
LAYER1
 10
1.8615
 20
6.3316
 30
0
 70
     0
  0
VERTEX
  8
LAYER1
 10
1.8511
 20
6.347
 30
0
 70
     0
  0
VERTEX
  8
LAYER1
 10
1.8472
 20
6.3659
 30
0
 70
     0
  0
SEQEND
  0
LINE
  8
LAYER1
  6
CONTINUOUS
 62
     7
 10
1.8472
 20
6.5812
 30
0
 11
1.8472
 21
6.3728
 31
0
  0
POLYLINE
  8
LAYER1
  6
CONTINUOUS
 62
     7
 66
     1
 70
     0
 40
0.0019
 41
0.0019
  0
VERTEX
  8
LAYER1
 10
2.0625
 20
6.3312
 30
0
 70
     0
  0
VERTEX
  8
LAYER1
 10
2.0813
 20
6.3273
 30
0
 70
     0
  0
VERTEX
  8
LAYER1
 10
2.0968
 20
6.3169
 30
0
 70
     0
  0
VERTEX
  8
LAYER1
 10
2.1073
 20
6.3014
 30
0
 70
     0
  0
VERTEX
  8
LAYER1
 10
2.1111
 20
6.2826
 30
0
 70
     0
  0
SEQEND
  0
INSERT
  8
LAYER1
  2
Group12
 10
0
 20
0
 30
0
  0
ENDBLK
  8
LAYER1
  0
BLOCK
  8
LAYER1
  2
Group14
 70
     0
 10
0
 20
0
 30
0
  0
LINE
  8
LAYER1
  6
CONTINUOUS
 62
     7
 10
2.7778
 20
4.0534
 30
0
 11
3.4444
 21
4.0534
 31
0
  0
LINE
  8
LAYER1
  6
CONTINUOUS
 62
     7
 10
3.3472
 20
4.0534
 30
0
 11
3.3889
 21
4.0951
 31
0
  0
LINE
  8
LAYER1
  6
CONTINUOUS
 62
     7
 10
3.2222
 20
4.0534
 30
0
 11
3.2639
 21
4.1089
 31
0
  0
LINE
  8
LAYER1
  6
CONTINUOUS
 62
     7
 10
3.0833
 20
4.0534
 30
0
 11
3.1389
 21
4.1089
 31
0
  0
LINE
  8
LAYER1
  6
CONTINUOUS
 62
     7
 10
2.9583
 20
4.0534
 30
0
 11
3.0139
 21
4.1228
 31
0
  0
LINE
  8
LAYER1
  6
CONTINUOUS
 62
     7
 10
2.8194
 20
4.0534
 30
0
 11
2.8889
 21
4.1228
 31
0
  0
LINE
  8
LAYER1
  6
CONTINUOUS
 62
     7
 10
2.7778
 20
4.1367
 30
0
 11
2.8194
 21
4.1784
 31
0
  0
LINE
  8
LAYER1
  6
CONTINUOUS
 62
     7
 10
2.7778
 20
4.2756
 30
0
 11
2.8194
 21
4.3173
 31
0
  0
LINE
  8
LAYER1
  6
CONTINUOUS
 62
     7
 10
2.7778
 20
4.4006
 30
0
 11
2.8194
 21
4.4423
 31
0
  0
LINE
  8
LAYER1
  6
CONTINUOUS
 62
     7
 10
3.375
 20
5.0117
 30
0
 11
3.4167
 21
5.0534
 31
0
  0
LINE
  8
LAYER1
  6
CONTINUOUS
 62
     7
 10
2.7778
 20
4.5395
 30
0
 11
2.8194
 21
4.5812
 31
0
  0
LINE
  8
LAYER1
  6
CONTINUOUS
 62
     7
 10
3.2361
 20
4.9978
 30
0
 11
3.2917
 21
5.0534
 31
0
  0
LINE
  8
LAYER1
  6
CONTINUOUS
 62
     7
 10
2.7778
 20
4.6784
 30
0
 11
2.8194
 21
4.7201
 31
0
  0
LINE
  8
LAYER1
  6
CONTINUOUS
 62
     7
 10
3.0972
 20
4.9978
 30
0
 11
3.1528
 21
5.0534
 31
0
  0
LINE
  8
LAYER1
  6
CONTINUOUS
 62
     7
 10
2.7778
 20
4.8034
 30
0
 11
2.8194
 21
4.8451
 31
0
  0
LINE
  8
LAYER1
  6
CONTINUOUS
 62
     7
 10
2.9583
 20
4.9839
 30
0
 11
3.0278
 21
5.0534
 31
0
  0
LINE
  8
LAYER1
  6
CONTINUOUS
 62
     7
 10
2.7778
 20
4.9423
 30
0
 11
2.8889
 21
5.0534
 31
0
  0
LINE
  8
LAYER1
  6
CONTINUOUS
 62
     7
 10
3.3889
 20
4.0534
 30
0
 11
3.4306
 21
4.0812
 31
0
  0
LINE
  8
LAYER1
  6
CONTINUOUS
 62
     7
 10
3.2639
 20
4.0534
 30
0
 11
3.3056
 21
4.0951
 31
0
  0
LINE
  8
LAYER1
  6
CONTINUOUS
 62
     7
 10
3.125
 20
4.0534
 30
0
 11
3.1806
 21
4.1089
 31
0
  0
LINE
  8
LAYER1
  6
CONTINUOUS
 62
     7
 10
3
 20
4.0534
 30
0
 11
3.0556
 21
4.1089
 31
0
  0
LINE
  8
LAYER1
  6
CONTINUOUS
 62
     7
 10
2.8611
 20
4.0534
 30
0
 11
2.9306
 21
4.1228
 31
0
  0
LINE
  8
LAYER1
  6
CONTINUOUS
 62
     7
 10
2.7778
 20
4.0951
 30
0
 11
2.8194
 21
4.1506
 31
0
  0
LINE
  8
LAYER1
  6
CONTINUOUS
 62
     7
 10
2.7778
 20
4.2339
 30
0
 11
2.8194
 21
4.2756
 31
0
  0
LINE
  8
LAYER1
  6
CONTINUOUS
 62
     7
 10
2.7778
 20
4.3589
 30
0
 11
2.8194
 21
4.4006
 31
0
  0
LINE
  8
LAYER1
  6
CONTINUOUS
 62
     7
 10
2.7778
 20
4.4978
 30
0
 11
2.8194
 21
4.5395
 31
0
  0
LINE
  8
LAYER1
  6
CONTINUOUS
 62
     7
 10
3.2778
 20
4.9978
 30
0
 11
3.3333
 21
5.0534
 31
0
  0
LINE
  8
LAYER1
  6
CONTINUOUS
 62
     7
 10
2.7778
 20
4.6228
 30
0
 11
2.8194
 21
4.6645
 31
0
  0
LINE
  8
LAYER1
  6
CONTINUOUS
 62
     7
 10
3.1389
 20
4.9978
 30
0
 11
3.1944
 21
5.0534
 31
0
  0
LINE
  8
LAYER1
  6
CONTINUOUS
 62
     7
 10
2.7778
 20
4.7617
 30
0
 11
2.8194
 21
4.8034
 31
0
  0
LINE
  8
LAYER1
  6
CONTINUOUS
 62
     7
 10
3
 20
4.9839
 30
0
 11
3.0694
 21
5.0534
 31
0
  0
LINE
  8
LAYER1
  6
CONTINUOUS
 62
     7
 10
2.7778
 20
4.9006
 30
0
 11
2.8194
 21
4.9423
 31
0
  0
LINE
  8
LAYER1
  6
CONTINUOUS
 62
     7
 10
2.8611
 20
4.9839
 30
0
 11
2.9306
 21
5.0534
 31
0
  0
ENDBLK
  8
LAYER1
  0
BLOCK
  8
LAYER1
  2
Group15
 70
     0
 10
0
 20
0
 30
0
  0
LINE
  8
LAYER1
  6
CONTINUOUS
 62
     7
 10
1.8056
 20
6.5812
 30
0
 11
1.8333
 21
6.6089
 31
0
  0
LINE
  8
LAYER1
  6
CONTINUOUS
 62
     7
 10
2.7778
 20
5.0534
 30
0
 11
2.7778
 21
4.0534
 31
0
  0
POLYLINE
  8
LAYER1
  6
CONTINUOUS
 62
     7
 66
     1
 70
     0
 40
0.0019
 41
0.0019
  0
VERTEX
  8
LAYER1
 10
3.4444
 20
5.0534
 30
0
 70
     0
  0
VERTEX
  8
LAYER1
 10
3.4444
 20
5.0534
 30
0
 70
     0
  0
VERTEX
  8
LAYER1
 10
3.4444
 20
5.0395
 30
0
 70
     0
  0
VERTEX
  8
LAYER1
 10
3.4444
 20
5.0395
 30
0
 70
     0
  0
VERTEX
  8
LAYER1
 10
3.4306
 20
5.0256
 30
0
 70
     0
  0
VERTEX
  8
LAYER1
 10
3.4167
 20
5.0117
 30
0
 70
     0
  0
VERTEX
  8
LAYER1
 10
3.4167
 20
5.0117
 30
0
 70
     0
  0
VERTEX
  8
LAYER1
 10
3.4028
 20
5.0117
 30
0
 70
     0
  0
SEQEND
  0
POLYLINE
  8
LAYER1
  6
CONTINUOUS
 62
     7
 66
     1
 70
     0
 40
0.0019
 41
0.0019
  0
VERTEX
  8
LAYER1
 10
2.8194
 20
4.9423
 30
0
 70
     0
  0
VERTEX
  8
LAYER1
 10
2.8194
 20
4.9423
 30
0
 70
     0
  0
VERTEX
  8
LAYER1
 10
2.8333
 20
4.9701
 30
0
 70
     0
  0
VERTEX
  8
LAYER1
 10
2.8333
 20
4.9701
 30
0
 70
     0
  0
VERTEX
  8
LAYER1
 10
2.8333
 20
4.9701
 30
0
 70
     0
  0
VERTEX
  8
LAYER1
 10
2.8611
 20
4.9839
 30
0
 70
     0
  0
VERTEX
  8
LAYER1
 10
2.8611
 20
4.9839
 30
0
 70
     0
  0
SEQEND
  0
LINE
  8
LAYER1
  6
CONTINUOUS
 62
     7
 10
3.4028
 20
5.0117
 30
0
 11
2.8611
 21
4.9839
 31
0
  0
POLYLINE
  8
LAYER1
  6
CONTINUOUS
 62
     7
 66
     1
 70
     0
 40
0.0019
 41
0.0019
  0
VERTEX
  8
LAYER1
 10
2.8611
 20
4.1228
 30
0
 70
     0
  0
VERTEX
  8
LAYER1
 10
2.8611
 20
4.1228
 30
0
 70
     0
  0
VERTEX
  8
LAYER1
 10
2.8472
 20
4.1228
 30
0
 70
     0
  0
VERTEX
  8
LAYER1
 10
2.8333
 20
4.1367
 30
0
 70
     0
  0
VERTEX
  8
LAYER1
 10
2.8333
 20
4.1367
 30
0
 70
     0
  0
VERTEX
  8
LAYER1
 10
2.8194
 20
4.1506
 30
0
 70
     0
  0
VERTEX
  8
LAYER1
 10
2.8194
 20
4.1645
 30
0
 70
     0
  0
SEQEND
  0
LINE
  8
LAYER1
  6
CONTINUOUS
 62
     7
 10
2.8194
 20
4.9423
 30
0
 11
2.8194
 21
4.1645
 31
0
  0
POLYLINE
  8
LAYER1
  6
CONTINUOUS
 62
     7
 66
     1
 70
     0
 40
0.0019
 41
0.0019
  0
VERTEX
  8
LAYER1
 10
3.4028
 20
4.0951
 30
0
 70
     0
  0
VERTEX
  8
LAYER1
 10
3.4167
 20
4.0951
 30
0
 70
     0
  0
VERTEX
  8
LAYER1
 10
3.4306
 20
4.0812
 30
0
 70
     0
  0
VERTEX
  8
LAYER1
 10
3.4306
 20
4.0812
 30
0
 70
     0
  0
VERTEX
  8
LAYER1
 10
3.4444
 20
4.0673
 30
0
 70
     0
  0
VERTEX
  8
LAYER1
 10
3.4444
 20
4.0534
 30
0
 70
     0
  0
VERTEX
  8
LAYER1
 10
3.4444
 20
4.0534
 30
0
 70
     0
  0
VERTEX
  8
LAYER1
 10
3.4444
 20
4.0534
 30
0
 70
     0
  0
SEQEND
  0
LINE
  8
LAYER1
  6
CONTINUOUS
 62
     7
 10
3.4028
 20
4.0951
 30
0
 11
2.8611
 21
4.1228
 31
0
  0
LINE
  8
LAYER1
  6
CONTINUOUS
 62
     7
 10
2.7778
 20
5.0534
 30
0
 11
3.4444
 21
5.0534
 31
0
  0
INSERT
  8
LAYER1
  2
Group14
 10
0
 20
0
 30
0
  0
ENDBLK
  8
LAYER1
  0
BLOCK
  8
LAYER1
  2
Group16
 70
     0
 10
0
 20
0
 30
0
  0
LINE
  8
LAYER1
  6
CONTINUOUS
 62
     7
 10
2.7778
 20
5.0256
 30
0
 11
2.8056
 21
5.0534
 31
0
  0
POLYLINE
  8
LAYER1
  6
CONTINUOUS
 62
     7
 66
     1
 70
     0
 40
0.0039
 41
0.0039
  0
VERTEX
  8
LAYER1
 10
3.9167
 20
6.2895
 30
0
 70
     0
  0
VERTEX
  8
LAYER1
 10
3.9167
 20
6.2895
 30
0
 70
     0
  0
VERTEX
  8
LAYER1
 10
3.9306
 20
6.3173
 30
0
 70
     0
  0
VERTEX
  8
LAYER1
 10
3.9306
 20
6.3173
 30
0
 70
     0
  0
VERTEX
  8
LAYER1
 10
3.9306
 20
6.3173
 30
0
 70
     0
  0
VERTEX
  8
LAYER1
 10
3.9583
 20
6.3312
 30
0
 70
     0
  0
VERTEX
  8
LAYER1
 10
3.9583
 20
6.3312
 30
0
 70
     0
  0
SEQEND
  0
POLYLINE
  8
LAYER1
  6
CONTINUOUS
 62
     7
 66
     1
 70
     0
 40
0.0039
 41
0.0039
  0
VERTEX
  8
LAYER1
 10
4.1528
 20
6.3867
 30
0
 70
     0
  0
VERTEX
  8
LAYER1
 10
4.1528
 20
6.3728
 30
0
 70
     0
  0
VERTEX
  8
LAYER1
 10
4.1528
 20
6.3728
 30
0
 70
     0
  0
VERTEX
  8
LAYER1
 10
4.1389
 20
6.3589
 30
0
 70
     0
  0
VERTEX
  8
LAYER1
 10
4.125
 20
6.3451
 30
0
 70
     0
  0
VERTEX
  8
LAYER1
 10
4.125
 20
6.3451
 30
0
 70
     0
  0
VERTEX
  8
LAYER1
 10
4.1111
 20
6.3451
 30
0
 70
     0
  0
SEQEND
  0
LINE
  8
LAYER1
  6
CONTINUOUS
 62
     7
 10
3.9583
 20
6.3312
 30
0
 11
4.1111
 21
6.3451
 31
0
  0
POLYLINE
  8
LAYER1
  6
CONTINUOUS
 62
     7
 66
     1
 70
     0
 40
0.0039
 41
0.0039
  0
VERTEX
  8
LAYER1
 10
4.2222
 20
6.3451
 30
0
 70
     0
  0
VERTEX
  8
LAYER1
 10
4.2222
 20
6.3451
 30
0
 70
     0
  0
VERTEX
  8
LAYER1
 10
4.2083
 20
6.3451
 30
0
 70
     0
  0
VERTEX
  8
LAYER1
 10
4.2083
 20
6.3589
 30
0
 70
     0
  0
VERTEX
  8
LAYER1
 10
4.2083
 20
6.3589
 30
0
 70
     0
  0
VERTEX
  8
LAYER1
 10
4.1944
 20
6.3728
 30
0
 70
     0
  0
VERTEX
  8
LAYER1
 10
4.1944
 20
6.3867
 30
0
 70
     0
  0
SEQEND
  0
POLYLINE
  8
LAYER1
  6
CONTINUOUS
 62
     7
 66
     1
 70
     0
 40
0.0039
 41
0.0039
  0
VERTEX
  8
LAYER1
 10
4.3889
 20
6.3312
 30
0
 70
     0
  0
VERTEX
  8
LAYER1
 10
4.4028
 20
6.3312
 30
0
 70
     0
  0
VERTEX
  8
LAYER1
 10
4.4028
 20
6.3173
 30
0
 70
     0
  0
VERTEX
  8
LAYER1
 10
4.4028
 20
6.3173
 30
0
 70
     0
  0
VERTEX
  8
LAYER1
 10
4.4167
 20
6.3034
 30
0
 70
     0
  0
VERTEX
  8
LAYER1
 10
4.4167
 20
6.2895
 30
0
 70
     0
  0
VERTEX
  8
LAYER1
 10
4.4167
 20
6.2895
 30
0
 70
     0
  0
SEQEND
  0
LINE
  8
LAYER1
  6
CONTINUOUS
 62
     7
 10
4.3889
 20
6.3312
 30
0
 11
4.2222
 21
6.3451
 31
0
  0
LINE
  8
LAYER1
  6
CONTINUOUS
 62
     7
 10
4.4167
 20
6.2895
 30
0
 11
3.9167
 21
6.2895
 31
0
  0
LINE
  8
LAYER1
  6
CONTINUOUS
 62
     7
 10
4.4028
 20
6.2895
 30
0
 11
4.4167
 21
6.3034
 31
0
  0
LINE
  8
LAYER1
  6
CONTINUOUS
 62
     7
 10
4.2639
 20
6.2895
 30
0
 11
4.3194
 21
6.3451
 31
0
  0
LINE
  8
LAYER1
  6
CONTINUOUS
 62
     7
 10
4.1389
 20
6.2895
 30
0
 11
4.2083
 21
6.3589
 31
0
  0
LINE
  8
LAYER1
  6
CONTINUOUS
 62
     7
 10
4
 20
6.2895
 30
0
 11
4.0556
 21
6.3451
 31
0
  0
LINE
  8
LAYER1
  6
CONTINUOUS
 62
     7
 10
4.1528
 20
6.4284
 30
0
 11
4.1944
 21
6.4701
 31
0
  0
LINE
  8
LAYER1
  6
CONTINUOUS
 62
     7
 10
4.1528
 20
6.5673
 30
0
 11
4.1944
 21
6.6089
 31
0
  0
LINE
  8
LAYER1
  6
CONTINUOUS
 62
     7
 10
4.1528
 20
6.6923
 30
0
 11
4.1944
 21
6.7339
 31
0
  0
LINE
  8
LAYER1
  6
CONTINUOUS
 62
     7
 10
4.3194
 20
6.2895
 30
0
 11
4.3611
 21
6.3312
 31
0
  0
LINE
  8
LAYER1
  6
CONTINUOUS
 62
     7
 10
4.1806
 20
6.2895
 30
0
 11
4.2361
 21
6.3451
 31
0
  0
LINE
  8
LAYER1
  6
CONTINUOUS
 62
     7
 10
4.0556
 20
6.2895
 30
0
 11
4.1111
 21
6.3451
 31
0
  0
LINE
  8
LAYER1
  6
CONTINUOUS
 62
     7
 10
4.1528
 20
6.3867
 30
0
 11
4.1944
 21
6.4284
 31
0
  0
LINE
  8
LAYER1
  6
CONTINUOUS
 62
     7
 10
3.9167
 20
6.2895
 30
0
 11
3.9583
 21
6.3312
 31
0
  0
LINE
  8
LAYER1
  6
CONTINUOUS
 62
     7
 10
4.1528
 20
6.5256
 30
0
 11
4.1944
 21
6.5673
 31
0
  0
LINE
  8
LAYER1
  6
CONTINUOUS
 62
     7
 10
4.1528
 20
6.6506
 30
0
 11
4.1944
 21
6.6923
 31
0
  0
LINE
  8
LAYER1
  6
CONTINUOUS
 62
     7
 10
4.1528
 20
6.7895
 30
0
 11
4.1528
 21
6.3867
 31
0
  0
LINE
  8
LAYER1
  6
CONTINUOUS
 62
     7
 10
4.1944
 20
6.7895
 30
0
 11
4.1944
 21
6.3867
 31
0
  0
ENDBLK
  8
LAYER1
  0
BLOCK
  8
LAYER1
  2
Group17
 70
     0
 10
0
 20
0
 30
0
  0
LINE
  8
LAYER1
  6
CONTINUOUS
 62
     7
 10
1
 20
1.5812
 30
0
 11
1.8333
 21
1.5812
 31
0
  0
LINE
  8
LAYER1
  6
CONTINUOUS
 62
     7
 10
1.7361
 20
1.5812
 30
0
 11
1.7778
 21
1.6228
 31
0
  0
LINE
  8
LAYER1
  6
CONTINUOUS
 62
     7
 10
1.6111
 20
1.5812
 30
0
 11
1.6528
 21
1.6228
 31
0
  0
LINE
  8
LAYER1
  6
CONTINUOUS
 62
     7
 10
1.4722
 20
1.5812
 30
0
 11
1.5139
 21
1.6228
 31
0
  0
LINE
  8
LAYER1
  6
CONTINUOUS
 62
     7
 10
1.3472
 20
1.5812
 30
0
 11
1.4306
 21
1.6645
 31
0
  0
LINE
  8
LAYER1
  6
CONTINUOUS
 62
     7
 10
1.2083
 20
1.5812
 30
0
 11
1.25
 21
1.6228
 31
0
  0
LINE
  8
LAYER1
  6
CONTINUOUS
 62
     7
 10
1.3889
 20
1.7617
 30
0
 11
1.4306
 21
1.8034
 31
0
  0
LINE
  8
LAYER1
  6
CONTINUOUS
 62
     7
 10
1.0833
 20
1.5812
 30
0
 11
1.125
 21
1.6228
 31
0
  0
LINE
  8
LAYER1
  6
CONTINUOUS
 62
     7
 10
1.3889
 20
1.9006
 30
0
 11
1.4306
 21
1.9423
 31
0
  0
LINE
  8
LAYER1
  6
CONTINUOUS
 62
     7
 10
1.3889
 20
2.0256
 30
0
 11
1.4306
 21
2.0673
 31
0
  0
LINE
  8
LAYER1
  6
CONTINUOUS
 62
     7
 10
1.7361
 20
2.3728
 30
0
 11
1.7778
 21
2.4145
 31
0
  0
LINE
  8
LAYER1
  6
CONTINUOUS
 62
     7
 10
1.3889
 20
2.1645
 30
0
 11
1.4306
 21
2.2062
 31
0
  0
LINE
  8
LAYER1
  6
CONTINUOUS
 62
     7
 10
1.5972
 20
2.3728
 30
0
 11
1.6389
 21
2.4145
 31
0
  0
LINE
  8
LAYER1
  6
CONTINUOUS
 62
     7
 10
1.3889
 20
2.2895
 30
0
 11
1.4306
 21
2.3312
 31
0
  0
LINE
  8
LAYER1
  6
CONTINUOUS
 62
     7
 10
1.4722
 20
2.3728
 30
0
 11
1.5139
 21
2.4145
 31
0
  0
LINE
  8
LAYER1
  6
CONTINUOUS
 62
     7
 10
1.3333
 20
2.3728
 30
0
 11
1.375
 21
2.4145
 31
0
  0
LINE
  8
LAYER1
  6
CONTINUOUS
 62
     7
 10
1.2083
 20
2.3728
 30
0
 11
1.25
 21
2.4145
 31
0
  0
LINE
  8
LAYER1
  6
CONTINUOUS
 62
     7
 10
1.0694
 20
2.3728
 30
0
 11
1.1111
 21
2.4145
 31
0
  0
LINE
  8
LAYER1
  6
CONTINUOUS
 62
     7
 10
1.7778
 20
1.5812
 30
0
 11
1.8194
 21
1.6228
 31
0
  0
LINE
  8
LAYER1
  6
CONTINUOUS
 62
     7
 10
1.6528
 20
1.5812
 30
0
 11
1.6944
 21
1.6228
 31
0
  0
LINE
  8
LAYER1
  6
CONTINUOUS
 62
     7
 10
1.5139
 20
1.5812
 30
0
 11
1.5556
 21
1.6228
 31
0
  0
LINE
  8
LAYER1
  6
CONTINUOUS
 62
     7
 10
1.3889
 20
1.5812
 30
0
 11
1.4306
 21
1.6228
 31
0
  0
LINE
  8
LAYER1
  6
CONTINUOUS
 62
     7
 10
1.25
 20
1.5812
 30
0
 11
1.2917
 21
1.6228
 31
0
  0
LINE
  8
LAYER1
  6
CONTINUOUS
 62
     7
 10
1.3889
 20
1.7201
 30
0
 11
1.4306
 21
1.7617
 31
0
  0
LINE
  8
LAYER1
  6
CONTINUOUS
 62
     7
 10
1.125
 20
1.5812
 30
0
 11
1.1667
 21
1.6228
 31
0
  0
LINE
  8
LAYER1
  6
CONTINUOUS
 62
     7
 10
1.3889
 20
1.8451
 30
0
 11
1.4306
 21
1.8867
 31
0
  0
LINE
  8
LAYER1
  6
CONTINUOUS
 62
     7
 10
1
 20
1.5812
 30
0
 11
1.0278
 21
1.6228
 31
0
  0
LINE
  8
LAYER1
  6
CONTINUOUS
 62
     7
 10
1.3889
 20
1.9839
 30
0
 11
1.4306
 21
2.0256
 31
0
  0
LINE
  8
LAYER1
  6
CONTINUOUS
 62
     7
 10
1.7778
 20
2.3728
 30
0
 11
1.8194
 21
2.4145
 31
0
  0
LINE
  8
LAYER1
  6
CONTINUOUS
 62
     7
 10
1.3889
 20
2.1089
 30
0
 11
1.4306
 21
2.1506
 31
0
  0
LINE
  8
LAYER1
  6
CONTINUOUS
 62
     7
 10
1.6528
 20
2.3728
 30
0
 11
1.6944
 21
2.4145
 31
0
  0
LINE
  8
LAYER1
  6
CONTINUOUS
 62
     7
 10
1.3889
 20
2.2478
 30
0
 11
1.4306
 21
2.2895
 31
0
  0
LINE
  8
LAYER1
  6
CONTINUOUS
 62
     7
 10
1.5139
 20
2.3728
 30
0
 11
1.5556
 21
2.4145
 31
0
  0
LINE
  8
LAYER1
  6
CONTINUOUS
 62
     7
 10
1.375
 20
2.3728
 30
0
 11
1.4167
 21
2.4145
 31
0
  0
LINE
  8
LAYER1
  6
CONTINUOUS
 62
     7
 10
1.25
 20
2.3728
 30
0
 11
1.2917
 21
2.4145
 31
0
  0
LINE
  8
LAYER1
  6
CONTINUOUS
 62
     7
 10
1.1111
 20
2.3728
 30
0
 11
1.1528
 21
2.4145
 31
0
  0
ENDBLK
  8
LAYER1
  0
BLOCK
  8
LAYER1
  2
Group18
 70
     0
 10
0
 20
0
 30
0
  0
LINE
  8
LAYER1
  6
CONTINUOUS
 62
     7
 10
4.1944
 20
6.7895
 30
0
 11
4.1528
 21
6.7895
 31
0
  0
LINE
  8
LAYER1
  6
CONTINUOUS
 62
     7
 10
1
 20
2.3728
 30
0
 11
1
 21
2.4145
 31
0
  0
POLYLINE
  8
LAYER1
  6
CONTINUOUS
 62
     7
 66
     1
 70
     0
 40
0.0039
 41
0.0039
  0
VERTEX
  8
LAYER1
 10
1.375
 20
2.3728
 30
0
 70
     0
  0
VERTEX
  8
LAYER1
 10
1.3946
 20
2.3647
 30
0
 70
     0
  0
VERTEX
  8
LAYER1
 10
1.4028
 20
2.3451
 30
0
 70
     0
  0
SEQEND
  0
LINE
  8
LAYER1
  6
CONTINUOUS
 62
     7
 10
1
 20
2.3728
 30
0
 11
1.375
 21
2.3728
 31
0
  0
POLYLINE
  8
LAYER1
  6
CONTINUOUS
 62
     7
 66
     1
 70
     0
 40
0.0039
 41
0.0039
  0
VERTEX
  8
LAYER1
 10
1.4306
 20
2.3451
 30
0
 70
     0
  0
VERTEX
  8
LAYER1
 10
1.4387
 20
2.3647
 30
0
 70
     0
  0
VERTEX
  8
LAYER1
 10
1.4583
 20
2.3728
 30
0
 70
     0
  0
SEQEND
  0
LINE
  8
LAYER1
  6
CONTINUOUS
 62
     7
 10
1.4583
 20
2.3728
 30
0
 11
1.8333
 21
2.3728
 31
0
  0
LINE
  8
LAYER1
  6
CONTINUOUS
 62
     7
 10
1
 20
2.4145
 30
0
 11
1.8333
 21
2.4145
 31
0
  0
LINE
  8
LAYER1
  6
CONTINUOUS
 62
     7
 10
1.8333
 20
2.3728
 30
0
 11
1.8333
 21
2.4145
 31
0
  0
LINE
  8
LAYER1
  6
CONTINUOUS
 62
     7
 10
1.8333
 20
1.5812
 30
0
 11
1.8333
 21
1.6228
 31
0
  0
POLYLINE
  8
LAYER1
  6
CONTINUOUS
 62
     7
 66
     1
 70
     0
 40
0.0039
 41
0.0039
  0
VERTEX
  8
LAYER1
 10
1.4028
 20
1.6367
 30
0
 70
     0
  0
VERTEX
  8
LAYER1
 10
1.3946
 20
1.6171
 30
0
 70
     0
  0
VERTEX
  8
LAYER1
 10
1.375
 20
1.6089
 30
0
 70
     0
  0
SEQEND
  0
LINE
  8
LAYER1
  6
CONTINUOUS
 62
     7
 10
1.3889
 20
1.6367
 30
0
 11
1.3889
 21
2.3451
 31
0
  0
POLYLINE
  8
LAYER1
  6
CONTINUOUS
 62
     7
 66
     1
 70
     0
 40
0.0039
 41
0.0039
  0
VERTEX
  8
LAYER1
 10
1.4583
 20
1.6089
 30
0
 70
     0
  0
VERTEX
  8
LAYER1
 10
1.4387
 20
1.6171
 30
0
 70
     0
  0
VERTEX
  8
LAYER1
 10
1.4306
 20
1.6367
 30
0
 70
     0
  0
SEQEND
  0
LINE
  8
LAYER1
  6
CONTINUOUS
 62
     7
 10
1.4306
 20
1.6367
 30
0
 11
1.4306
 21
2.3451
 31
0
  0
LINE
  8
LAYER1
  6
CONTINUOUS
 62
     7
 10
1.4583
 20
1.6228
 30
0
 11
1.8333
 21
1.6228
 31
0
  0
LINE
  8
LAYER1
  6
CONTINUOUS
 62
     7
 10
1
 20
1.6228
 30
0
 11
1.375
 21
1.6228
 31
0
  0
LINE
  8
LAYER1
  6
CONTINUOUS
 62
     7
 10
1
 20
1.5812
 30
0
 11
1
 21
1.6228
 31
0
  0
INSERT
  8
LAYER1
  2
Group17
 10
0
 20
0
 30
0
  0
ENDBLK
  8
LAYER1
  0
BLOCK
  8
LAYER1
  2
Group19
 70
     0
 10
0
 20
0
 30
0
  0
LINE
  8
LAYER1
  6
CONTINUOUS
 62
     7
 10
1
 20
2.3867
 30
0
 11
1.0278
 21
2.4145
 31
0
  0
LINE
  8
LAYER1
  6
CONTINUOUS
 62
     7
 10
3.4583
 20
6.2895
 30
0
 11
3.4583
 21
6.3312
 31
0
  0
POLYLINE
  8
LAYER1
  6
CONTINUOUS
 62
     7
 66
     1
 70
     0
 40
0.0039
 41
0.0039
  0
VERTEX
  8
LAYER1
 10
3.0417
 20
6.3451
 30
0
 70
     0
  0
VERTEX
  8
LAYER1
 10
3.0335
 20
6.3255
 30
0
 70
     0
  0
VERTEX
  8
LAYER1
 10
3.0139
 20
6.3173
 30
0
 70
     0
  0
SEQEND
  0
POLYLINE
  8
LAYER1
  6
CONTINUOUS
 62
     7
 66
     1
 70
     0
 40
0.0039
 41
0.0039
  0
VERTEX
  8
LAYER1
 10
3.0972
 20
6.3173
 30
0
 70
     0
  0
VERTEX
  8
LAYER1
 10
3.0776
 20
6.3255
 30
0
 70
     0
  0
VERTEX
  8
LAYER1
 10
3.0694
 20
6.3451
 30
0
 70
     0
  0
SEQEND
  0
LINE
  8
LAYER1
  6
CONTINUOUS
 62
     7
 10
3.0833
 20
6.3312
 30
0
 11
3.4583
 21
6.3312
 31
0
  0
LINE
  8
LAYER1
  6
CONTINUOUS
 62
     7
 10
2.625
 20
6.3312
 30
0
 11
3
 21
6.3312
 31
0
  0
LINE
  8
LAYER1
  6
CONTINUOUS
 62
     7
 10
2.625
 20
6.2895
 30
0
 11
2.625
 21
6.3312
 31
0
  0
LINE
  8
LAYER1
  6
CONTINUOUS
 62
     7
 10
2.625
 20
6.2895
 30
0
 11
3.4583
 21
6.2895
 31
0
  0
LINE
  8
LAYER1
  6
CONTINUOUS
 62
     7
 10
3.375
 20
6.2895
 30
0
 11
3.4167
 21
6.3312
 31
0
  0
LINE
  8
LAYER1
  6
CONTINUOUS
 62
     7
 10
3.2361
 20
6.2895
 30
0
 11
3.2778
 21
6.3312
 31
0
  0
LINE
  8
LAYER1
  6
CONTINUOUS
 62
     7
 10
3.1111
 20
6.2895
 30
0
 11
3.1528
 21
6.3312
 31
0
  0
LINE
  8
LAYER1
  6
CONTINUOUS
 62
     7
 10
2.9722
 20
6.2895
 30
0
 11
3.0694
 21
6.3728
 31
0
  0
LINE
  8
LAYER1
  6
CONTINUOUS
 62
     7
 10
2.8472
 20
6.2895
 30
0
 11
2.8889
 21
6.3312
 31
0
  0
LINE
  8
LAYER1
  6
CONTINUOUS
 62
     7
 10
3.0278
 20
6.4701
 30
0
 11
3.0694
 21
6.5117
 31
0
  0
LINE
  8
LAYER1
  6
CONTINUOUS
 62
     7
 10
2.7083
 20
6.2895
 30
0
 11
2.75
 21
6.3312
 31
0
  0
LINE
  8
LAYER1
  6
CONTINUOUS
 62
     7
 10
3.0278
 20
6.5951
 30
0
 11
3.0694
 21
6.6367
 31
0
  0
LINE
  8
LAYER1
  6
CONTINUOUS
 62
     7
 10
3.4167
 20
6.2895
 30
0
 11
3.4583
 21
6.3312
 31
0
  0
LINE
  8
LAYER1
  6
CONTINUOUS
 62
     7
 10
3.2917
 20
6.2895
 30
0
 11
3.3333
 21
6.3312
 31
0
  0
LINE
  8
LAYER1
  6
CONTINUOUS
 62
     7
 10
3.1528
 20
6.2895
 30
0
 11
3.1944
 21
6.3312
 31
0
  0
LINE
  8
LAYER1
  6
CONTINUOUS
 62
     7
 10
3.0139
 20
6.2895
 30
0
 11
3.0694
 21
6.3312
 31
0
  0
LINE
  8
LAYER1
  6
CONTINUOUS
 62
     7
 10
2.8889
 20
6.2895
 30
0
 11
2.9306
 21
6.3312
 31
0
  0
LINE
  8
LAYER1
  6
CONTINUOUS
 62
     7
 10
3.0278
 20
6.4284
 30
0
 11
3.0694
 21
6.4701
 31
0
  0
LINE
  8
LAYER1
  6
CONTINUOUS
 62
     7
 10
2.75
 20
6.2895
 30
0
 11
2.7917
 21
6.3312
 31
0
  0
LINE
  8
LAYER1
  6
CONTINUOUS
 62
     7
 10
3.0278
 20
6.5534
 30
0
 11
3.0694
 21
6.5951
 31
0
  0
LINE
  8
LAYER1
  6
CONTINUOUS
 62
     7
 10
2.625
 20
6.2895
 30
0
 11
2.6667
 21
6.3312
 31
0
  0
LINE
  8
LAYER1
  6
CONTINUOUS
 62
     7
 10
3.0278
 20
6.3451
 30
0
 11
3.0278
 21
6.7062
 31
0
  0
LINE
  8
LAYER1
  6
CONTINUOUS
 62
     7
 10
3.0694
 20
6.3451
 30
0
 11
3.0694
 21
6.7062
 31
0
  0
ENDBLK
  8
LAYER1
  0
BLOCK
  8
LAYER1
  2
Group20
 70
     0
 10
0
 20
0
 30
0
  0
POLYLINE
  8
LAYER1
  6
CONTINUOUS
 62
     7
 66
     1
 70
     0
 40
0.0019
 41
0.0019
  0
VERTEX
  8
LAYER1
 10
5.0278
 20
1.6228
 30
0
 70
     0
  0
VERTEX
  8
LAYER1
 10
5.4861
 20
1.6228
 30
0
 70
     0
  0
VERTEX
  8
LAYER1
 10
5.4861
 20
1.5812
 30
0
 70
     0
  0
SEQEND
  0
LINE
  8
LAYER1
  6
CONTINUOUS
 62
     7
 10
5.3611
 20
1.5812
 30
0
 11
5.4028
 21
1.6228
 31
0
  0
LINE
  8
LAYER1
  6
CONTINUOUS
 62
     7
 10
5.2361
 20
1.5812
 30
0
 11
5.2778
 21
1.6228
 31
0
  0
LINE
  8
LAYER1
  6
CONTINUOUS
 62
     7
 10
5.0972
 20
1.5812
 30
0
 11
5.1389
 21
1.6228
 31
0
  0
LINE
  8
LAYER1
  6
CONTINUOUS
 62
     7
 10
4.9583
 20
1.5812
 30
0
 11
5.0139
 21
1.6228
 31
0
  0
LINE
  8
LAYER1
  6
CONTINUOUS
 62
     7
 10
4.8333
 20
1.5812
 30
0
 11
4.875
 21
1.6228
 31
0
  0
LINE
  8
LAYER1
  6
CONTINUOUS
 62
     7
 10
4.9583
 20
1.7062
 30
0
 11
5
 21
1.7478
 31
0
  0
LINE
  8
LAYER1
  6
CONTINUOUS
 62
     7
 10
4.6944
 20
1.5812
 30
0
 11
4.7361
 21
1.6228
 31
0
  0
LINE
  8
LAYER1
  6
CONTINUOUS
 62
     7
 10
4.9583
 20
1.8451
 30
0
 11
5
 21
1.8867
 31
0
  0
LINE
  8
LAYER1
  6
CONTINUOUS
 62
     7
 10
4.5694
 20
1.5812
 30
0
 11
4.6111
 21
1.6228
 31
0
  0
LINE
  8
LAYER1
  6
CONTINUOUS
 62
     7
 10
4.9583
 20
1.9701
 30
0
 11
5
 21
2.0117
 31
0
  0
LINE
  8
LAYER1
  6
CONTINUOUS
 62
     7
 10
4.9583
 20
2.1089
 30
0
 11
5
 21
2.1506
 31
0
  0
LINE
  8
LAYER1
  6
CONTINUOUS
 62
     7
 10
5.3889
 20
2.5395
 30
0
 11
5.4306
 21
2.5812
 31
0
  0
LINE
  8
LAYER1
  6
CONTINUOUS
 62
     7
 10
4.9583
 20
2.2478
 30
0
 11
5
 21
2.2895
 31
0
  0
LINE
  8
LAYER1
  6
CONTINUOUS
 62
     7
 10
5.2639
 20
2.5395
 30
0
 11
5.3056
 21
2.5812
 31
0
  0
LINE
  8
LAYER1
  6
CONTINUOUS
 62
     7
 10
4.9583
 20
2.3728
 30
0
 11
5
 21
2.4145
 31
0
  0
LINE
  8
LAYER1
  6
CONTINUOUS
 62
     7
 10
5.125
 20
2.5395
 30
0
 11
5.1667
 21
2.5812
 31
0
  0
LINE
  8
LAYER1
  6
CONTINUOUS
 62
     7
 10
4.9583
 20
2.5117
 30
0
 11
5.0278
 21
2.5812
 31
0
  0
LINE
  8
LAYER1
  6
CONTINUOUS
 62
     7
 10
4.8611
 20
2.5395
 30
0
 11
4.9028
 21
2.5812
 31
0
  0
LINE
  8
LAYER1
  6
CONTINUOUS
 62
     7
 10
4.7222
 20
2.5395
 30
0
 11
4.7639
 21
2.5812
 31
0
  0
LINE
  8
LAYER1
  6
CONTINUOUS
 62
     7
 10
4.5972
 20
2.5395
 30
0
 11
4.6389
 21
2.5812
 31
0
  0
LINE
  8
LAYER1
  6
CONTINUOUS
 62
     7
 10
4.4861
 20
2.5534
 30
0
 11
4.5
 21
2.5812
 31
0
  0
LINE
  8
LAYER1
  6
CONTINUOUS
 62
     7
 10
5.4028
 20
1.5812
 30
0
 11
5.4444
 21
1.6228
 31
0
  0
LINE
  8
LAYER1
  6
CONTINUOUS
 62
     7
 10
5.2778
 20
1.5812
 30
0
 11
5.3194
 21
1.6228
 31
0
  0
LINE
  8
LAYER1
  6
CONTINUOUS
 62
     7
 10
5.1389
 20
1.5812
 30
0
 11
5.1806
 21
1.6228
 31
0
  0
LINE
  8
LAYER1
  6
CONTINUOUS
 62
     7
 10
5.0139
 20
1.5812
 30
0
 11
5.0556
 21
1.6228
 31
0
  0
LINE
  8
LAYER1
  6
CONTINUOUS
 62
     7
 10
4.875
 20
1.5812
 30
0
 11
4.9167
 21
1.6228
 31
0
  0
LINE
  8
LAYER1
  6
CONTINUOUS
 62
     7
 10
4.9583
 20
1.6645
 30
0
 11
5
 21
1.7062
 31
0
  0
LINE
  8
LAYER1
  6
CONTINUOUS
 62
     7
 10
4.7361
 20
1.5812
 30
0
 11
4.7778
 21
1.6228
 31
0
  0
LINE
  8
LAYER1
  6
CONTINUOUS
 62
     7
 10
4.9583
 20
1.8034
 30
0
 11
5
 21
1.8451
 31
0
  0
LINE
  8
LAYER1
  6
CONTINUOUS
 62
     7
 10
4.6111
 20
1.5812
 30
0
 11
4.6528
 21
1.6228
 31
0
  0
LINE
  8
LAYER1
  6
CONTINUOUS
 62
     7
 10
4.9583
 20
1.9284
 30
0
 11
5
 21
1.9701
 31
0
  0
LINE
  8
LAYER1
  6
CONTINUOUS
 62
     7
 10
4.4861
 20
1.5812
 30
0
 11
4.5139
 21
1.6228
 31
0
  0
LINE
  8
LAYER1
  6
CONTINUOUS
 62
     7
 10
4.9583
 20
2.0673
 30
0
 11
5
 21
2.1089
 31
0
  0
LINE
  8
LAYER1
  6
CONTINUOUS
 62
     7
 10
5.4306
 20
2.5395
 30
0
 11
5.4722
 21
2.5812
 31
0
  0
LINE
  8
LAYER1
  6
CONTINUOUS
 62
     7
 10
4.9583
 20
2.1923
 30
0
 11
5
 21
2.2339
 31
0
  0
LINE
  8
LAYER1
  6
CONTINUOUS
 62
     7
 10
5.3056
 20
2.5395
 30
0
 11
5.3472
 21
2.5812
 31
0
  0
LINE
  8
LAYER1
  6
CONTINUOUS
 62
     7
 10
4.9583
 20
2.3312
 30
0
 11
5
 21
2.3728
 31
0
  0
LINE
  8
LAYER1
  6
CONTINUOUS
 62
     7
 10
5.1667
 20
2.5395
 30
0
 11
5.2083
 21
2.5812
 31
0
  0
LINE
  8
LAYER1
  6
CONTINUOUS
 62
     7
 10
4.9583
 20
2.4701
 30
0
 11
5
 21
2.5117
 31
0
  0
LINE
  8
LAYER1
  6
CONTINUOUS
 62
     7
 10
5.0417
 20
2.5395
 30
0
 11
5.0833
 21
2.5812
 31
0
  0
LINE
  8
LAYER1
  6
CONTINUOUS
 62
     7
 10
4.9028
 20
2.5395
 30
0
 11
4.9444
 21
2.5812
 31
0
  0
LINE
  8
LAYER1
  6
CONTINUOUS
 62
     7
 10
4.7639
 20
2.5395
 30
0
 11
4.8056
 21
2.5812
 31
0
  0
LINE
  8
LAYER1
  6
CONTINUOUS
 62
     7
 10
4.6389
 20
2.5395
 30
0
 11
4.6806
 21
2.5812
 31
0
  0
ENDBLK
  8
LAYER1
  0
BLOCK
  8
LAYER1
  2
Group21
 70
     0
 10
0
 20
0
 30
0
  0
LINE
  8
LAYER1
  6
CONTINUOUS
 62
     7
 10
3.0278
 20
6.7062
 30
0
 11
3.0694
 21
6.7062
 31
0
  0
POLYLINE
  8
LAYER1
  6
CONTINUOUS
 62
     7
 66
     1
 70
     0
 40
0.0019
 41
0.0019
  0
VERTEX
  8
LAYER1
 10
4.9722
 20
1.6367
 30
0
 70
     0
  0
VERTEX
  8
LAYER1
 10
4.964
 20
1.6171
 30
0
 70
     0
  0
VERTEX
  8
LAYER1
 10
4.9444
 20
1.6089
 30
0
 70
     0
  0
SEQEND
  0
POLYLINE
  8
LAYER1
  6
CONTINUOUS
 62
     7
 66
     1
 70
     0
 40
0.0019
 41
0.0019
  0
VERTEX
  8
LAYER1
 10
5.0278
 20
1.6089
 30
0
 70
     0
  0
VERTEX
  8
LAYER1
 10
5.0082
 20
1.6171
 30
0
 70
     0
  0
VERTEX
  8
LAYER1
 10
5
 20
1.6367
 30
0
 70
     0
  0
SEQEND
  0
POLYLINE
  8
LAYER1
  6
CONTINUOUS
 62
     7
 66
     1
 70
     0
 40
0.0019
 41
0.0019
  0
VERTEX
  8
LAYER1
 10
4.9444
 20
2.5395
 30
0
 70
     0
  0
VERTEX
  8
LAYER1
 10
4.964
 20
2.5313
 30
0
 70
     0
  0
VERTEX
  8
LAYER1
 10
4.9722
 20
2.5117
 30
0
 70
     0
  0
SEQEND
  0
LINE
  8
LAYER1
  6
CONTINUOUS
 62
     7
 10
4.9583
 20
1.6367
 30
0
 11
4.9583
 21
2.5117
 31
0
  0
POLYLINE
  8
LAYER1
  6
CONTINUOUS
 62
     7
 66
     1
 70
     0
 40
0.0019
 41
0.0019
  0
VERTEX
  8
LAYER1
 10
5
 20
2.5117
 30
0
 70
     0
  0
VERTEX
  8
LAYER1
 10
5.0082
 20
2.5313
 30
0
 70
     0
  0
VERTEX
  8
LAYER1
 10
5.0278
 20
2.5395
 30
0
 70
     0
  0
SEQEND
  0
LINE
  8
LAYER1
  6
CONTINUOUS
 62
     7
 10
5
 20
1.6367
 30
0
 11
5
 21
2.5117
 31
0
  0
LINE
  8
LAYER1
  6
CONTINUOUS
 62
     7
 10
5.4861
 20
2.5395
 30
0
 11
5.4861
 21
2.5812
 31
0
  0
LINE
  8
LAYER1
  6
CONTINUOUS
 62
     7
 10
5.0278
 20
2.5395
 30
0
 11
5.4861
 21
2.5395
 31
0
  0
LINE
  8
LAYER1
  6
CONTINUOUS
 62
     7
 10
4.4861
 20
2.5812
 30
0
 11
5.4861
 21
2.5812
 31
0
  0
LINE
  8
LAYER1
  6
CONTINUOUS
 62
     7
 10
4.4861
 20
2.5395
 30
0
 11
4.4861
 21
2.5812
 31
0
  0
LINE
  8
LAYER1
  6
CONTINUOUS
 62
     7
 10
4.4861
 20
2.5395
 30
0
 11
4.9444
 21
2.5395
 31
0
  0
LINE
  8
LAYER1
  6
CONTINUOUS
 62
     7
 10
4.4861
 20
1.6228
 30
0
 11
4.9444
 21
1.6228
 31
0
  0
POLYLINE
  8
LAYER1
  6
CONTINUOUS
 62
     7
 66
     1
 70
     0
 40
0.0019
 41
0.0019
  0
VERTEX
  8
LAYER1
 10
4.4861
 20
1.6228
 30
0
 70
     0
  0
VERTEX
  8
LAYER1
 10
4.4861
 20
1.5812
 30
0
 70
     0
  0
VERTEX
  8
LAYER1
 10
5.4861
 20
1.5812
 30
0
 70
     0
  0
SEQEND
  0
INSERT
  8
LAYER1
  2
Group20
 10
0
 20
0
 30
0
  0
ENDBLK
  8
LAYER1
  0
BLOCK
  8
LAYER1
  2
Group22
 70
     0
 10
0
 20
0
 30
0
  0
LINE
  8
LAYER1
  6
CONTINUOUS
 62
     7
 10
2.8194
 20
1.5812
 30
0
 11
3.4861
 21
1.5812
 31
0
  0
LINE
  8
LAYER1
  6
CONTINUOUS
 62
     7
 10
3.3611
 20
1.5812
 30
0
 11
3.4028
 21
1.6228
 31
0
  0
LINE
  8
LAYER1
  6
CONTINUOUS
 62
     7
 10
3.2361
 20
1.5812
 30
0
 11
3.2778
 21
1.6367
 31
0
  0
LINE
  8
LAYER1
  6
CONTINUOUS
 62
     7
 10
3.0972
 20
1.5812
 30
0
 11
3.1806
 21
1.6645
 31
0
  0
LINE
  8
LAYER1
  6
CONTINUOUS
 62
     7
 10
2.9583
 20
1.5812
 30
0
 11
3.0139
 21
1.6367
 31
0
  0
LINE
  8
LAYER1
  6
CONTINUOUS
 62
     7
 10
3.125
 20
1.7478
 30
0
 11
3.1667
 21
1.7895
 31
0
  0
LINE
  8
LAYER1
  6
CONTINUOUS
 62
     7
 10
2.8333
 20
1.5812
 30
0
 11
2.875
 21
1.6228
 31
0
  0
LINE
  8
LAYER1
  6
CONTINUOUS
 62
     7
 10
3.125
 20
1.8728
 30
0
 11
3.1667
 21
1.9145
 31
0
  0
LINE
  8
LAYER1
  6
CONTINUOUS
 62
     7
 10
3.125
 20
2.0117
 30
0
 11
3.1667
 21
2.0534
 31
0
  0
LINE
  8
LAYER1
  6
CONTINUOUS
 62
     7
 10
3.125
 20
2.1367
 30
0
 11
3.1667
 21
2.1784
 31
0
  0
LINE
  8
LAYER1
  6
CONTINUOUS
 62
     7
 10
3.125
 20
2.2756
 30
0
 11
3.1667
 21
2.3173
 31
0
  0
LINE
  8
LAYER1
  6
CONTINUOUS
 62
     7
 10
3.3889
 20
2.5395
 30
0
 11
3.4306
 21
2.5812
 31
0
  0
LINE
  8
LAYER1
  6
CONTINUOUS
 62
     7
 10
3.125
 20
2.4145
 30
0
 11
3.1667
 21
2.4562
 31
0
  0
LINE
  8
LAYER1
  6
CONTINUOUS
 62
     7
 10
3.25
 20
2.5256
 30
0
 11
3.3056
 21
2.5812
 31
0
  0
LINE
  8
LAYER1
  6
CONTINUOUS
 62
     7
 10
3.1111
 20
2.5256
 30
0
 11
3.1667
 21
2.5812
 31
0
  0
LINE
  8
LAYER1
  6
CONTINUOUS
 62
     7
 10
2.9861
 20
2.5256
 30
0
 11
3.0278
 21
2.5812
 31
0
  0
LINE
  8
LAYER1
  6
CONTINUOUS
 62
     7
 10
2.8611
 20
2.5395
 30
0
 11
2.9028
 21
2.5812
 31
0
  0
LINE
  8
LAYER1
  6
CONTINUOUS
 62
     7
 10
3.4028
 20
1.5812
 30
0
 11
3.4444
 21
1.6228
 31
0
  0
LINE
  8
LAYER1
  6
CONTINUOUS
 62
     7
 10
3.2778
 20
1.5812
 30
0
 11
3.3194
 21
1.6228
 31
0
  0
LINE
  8
LAYER1
  6
CONTINUOUS
 62
     7
 10
3.1389
 20
1.5812
 30
0
 11
3.1944
 21
1.6367
 31
0
  0
LINE
  8
LAYER1
  6
CONTINUOUS
 62
     7
 10
3.0139
 20
1.5812
 30
0
 11
3.0556
 21
1.6367
 31
0
  0
LINE
  8
LAYER1
  6
CONTINUOUS
 62
     7
 10
3.125
 20
1.7062
 30
0
 11
3.1667
 21
1.7478
 31
0
  0
LINE
  8
LAYER1
  6
CONTINUOUS
 62
     7
 10
2.875
 20
1.5812
 30
0
 11
2.9167
 21
1.6228
 31
0
  0
LINE
  8
LAYER1
  6
CONTINUOUS
 62
     7
 10
3.125
 20
1.8312
 30
0
 11
3.1667
 21
1.8728
 31
0
  0
LINE
  8
LAYER1
  6
CONTINUOUS
 62
     7
 10
3.125
 20
1.9701
 30
0
 11
3.1667
 21
2.0117
 31
0
  0
LINE
  8
LAYER1
  6
CONTINUOUS
 62
     7
 10
3.125
 20
2.0951
 30
0
 11
3.1667
 21
2.1367
 31
0
  0
LINE
  8
LAYER1
  6
CONTINUOUS
 62
     7
 10
3.125
 20
2.2339
 30
0
 11
3.1667
 21
2.2756
 31
0
  0
LINE
  8
LAYER1
  6
CONTINUOUS
 62
     7
 10
3.4306
 20
2.5395
 30
0
 11
3.4722
 21
2.5812
 31
0
  0
LINE
  8
LAYER1
  6
CONTINUOUS
 62
     7
 10
3.125
 20
2.3589
 30
0
 11
3.1667
 21
2.4006
 31
0
  0
LINE
  8
LAYER1
  6
CONTINUOUS
 62
     7
 10
3.2917
 20
2.5256
 30
0
 11
3.3472
 21
2.5812
 31
0
  0
LINE
  8
LAYER1
  6
CONTINUOUS
 62
     7
 10
3.125
 20
2.4978
 30
0
 11
3.2083
 21
2.5812
 31
0
  0
LINE
  8
LAYER1
  6
CONTINUOUS
 62
     7
 10
3.0278
 20
2.5256
 30
0
 11
3.0833
 21
2.5812
 31
0
  0
ENDBLK
  8
LAYER1
  0
BLOCK
  8
LAYER1
  2
Group23
 70
     0
 10
0
 20
0
 30
0
  0
LINE
  8
LAYER1
  6
CONTINUOUS
 62
     7
 10
4.5
 20
2.5395
 30
0
 11
4.5417
 21
2.5812
 31
0
  0
POLYLINE
  8
LAYER1
  6
CONTINUOUS
 62
     7
 66
     1
 70
     0
 40
0.0039
 41
0.0039
  0
VERTEX
  8
LAYER1
 10
3.4861
 20
2.5812
 30
0
 70
     0
  0
VERTEX
  8
LAYER1
 10
3.4861
 20
2.5812
 30
0
 70
     0
  0
VERTEX
  8
LAYER1
 10
3.4861
 20
2.5673
 30
0
 70
     0
  0
VERTEX
  8
LAYER1
 10
3.4861
 20
2.5534
 30
0
 70
     0
  0
VERTEX
  8
LAYER1
 10
3.4722
 20
2.5534
 30
0
 70
     0
  0
VERTEX
  8
LAYER1
 10
3.4583
 20
2.5395
 30
0
 70
     0
  0
VERTEX
  8
LAYER1
 10
3.4583
 20
2.5395
 30
0
 70
     0
  0
VERTEX
  8
LAYER1
 10
3.4444
 20
2.5395
 30
0
 70
     0
  0
SEQEND
  0
POLYLINE
  8
LAYER1
  6
CONTINUOUS
 62
     7
 66
     1
 70
     0
 40
0.0039
 41
0.0039
  0
VERTEX
  8
LAYER1
 10
3.1667
 20
2.4839
 30
0
 70
     0
  0
VERTEX
  8
LAYER1
 10
3.1667
 20
2.4839
 30
0
 70
     0
  0
VERTEX
  8
LAYER1
 10
3.1806
 20
2.5117
 30
0
 70
     0
  0
VERTEX
  8
LAYER1
 10
3.1806
 20
2.5117
 30
0
 70
     0
  0
VERTEX
  8
LAYER1
 10
3.1806
 20
2.5117
 30
0
 70
     0
  0
VERTEX
  8
LAYER1
 10
3.2083
 20
2.5256
 30
0
 70
     0
  0
VERTEX
  8
LAYER1
 10
3.2083
 20
2.5256
 30
0
 70
     0
  0
SEQEND
  0
LINE
  8
LAYER1
  6
CONTINUOUS
 62
     7
 10
3.4444
 20
2.5395
 30
0
 11
3.2083
 21
2.5256
 31
0
  0
POLYLINE
  8
LAYER1
  6
CONTINUOUS
 62
     7
 66
     1
 70
     0
 40
0.0039
 41
0.0039
  0
VERTEX
  8
LAYER1
 10
3.0833
 20
2.5256
 30
0
 70
     0
  0
VERTEX
  8
LAYER1
 10
3.0972
 20
2.5256
 30
0
 70
     0
  0
VERTEX
  8
LAYER1
 10
3.1111
 20
2.5117
 30
0
 70
     0
  0
VERTEX
  8
LAYER1
 10
3.1111
 20
2.5117
 30
0
 70
     0
  0
VERTEX
  8
LAYER1
 10
3.125
 20
2.4978
 30
0
 70
     0
  0
VERTEX
  8
LAYER1
 10
3.125
 20
2.4839
 30
0
 70
     0
  0
VERTEX
  8
LAYER1
 10
3.125
 20
2.4839
 30
0
 70
     0
  0
SEQEND
  0
POLYLINE
  8
LAYER1
  6
CONTINUOUS
 62
     7
 66
     1
 70
     0
 40
0.0039
 41
0.0039
  0
VERTEX
  8
LAYER1
 10
2.8611
 20
2.5395
 30
0
 70
     0
  0
VERTEX
  8
LAYER1
 10
2.8472
 20
2.5395
 30
0
 70
     0
  0
VERTEX
  8
LAYER1
 10
2.8333
 20
2.5395
 30
0
 70
     0
  0
VERTEX
  8
LAYER1
 10
2.8333
 20
2.5534
 30
0
 70
     0
  0
VERTEX
  8
LAYER1
 10
2.8333
 20
2.5534
 30
0
 70
     0
  0
VERTEX
  8
LAYER1
 10
2.8194
 20
2.5673
 30
0
 70
     0
  0
VERTEX
  8
LAYER1
 10
2.8194
 20
2.5812
 30
0
 70
     0
  0
VERTEX
  8
LAYER1
 10
2.8194
 20
2.5812
 30
0
 70
     0
  0
SEQEND
  0
LINE
  8
LAYER1
  6
CONTINUOUS
 62
     7
 10
2.8611
 20
2.5395
 30
0
 11
3.0833
 21
2.5256
 31
0
  0
LINE
  8
LAYER1
  6
CONTINUOUS
 62
     7
 10
2.8194
 20
2.5812
 30
0
 11
3.4861
 21
2.5812
 31
0
  0
POLYLINE
  8
LAYER1
  6
CONTINUOUS
 62
     7
 66
     1
 70
     0
 40
0.0039
 41
0.0039
  0
VERTEX
  8
LAYER1
 10
3.4444
 20
1.6228
 30
0
 70
     0
  0
VERTEX
  8
LAYER1
 10
3.4583
 20
1.6228
 30
0
 70
     0
  0
VERTEX
  8
LAYER1
 10
3.4722
 20
1.6089
 30
0
 70
     0
  0
VERTEX
  8
LAYER1
 10
3.4722
 20
1.6089
 30
0
 70
     0
  0
VERTEX
  8
LAYER1
 10
3.4861
 20
1.5951
 30
0
 70
     0
  0
VERTEX
  8
LAYER1
 10
3.4861
 20
1.5812
 30
0
 70
     0
  0
VERTEX
  8
LAYER1
 10
3.4861
 20
1.5812
 30
0
 70
     0
  0
VERTEX
  8
LAYER1
 10
3.4861
 20
1.5812
 30
0
 70
     0
  0
SEQEND
  0
POLYLINE
  8
LAYER1
  6
CONTINUOUS
 62
     7
 66
     1
 70
     0
 40
0.0039
 41
0.0039
  0
VERTEX
  8
LAYER1
 10
3.2083
 20
1.6367
 30
0
 70
     0
  0
VERTEX
  8
LAYER1
 10
3.2083
 20
1.6367
 30
0
 70
     0
  0
VERTEX
  8
LAYER1
 10
3.1944
 20
1.6367
 30
0
 70
     0
  0
VERTEX
  8
LAYER1
 10
3.1806
 20
1.6506
 30
0
 70
     0
  0
VERTEX
  8
LAYER1
 10
3.1806
 20
1.6506
 30
0
 70
     0
  0
VERTEX
  8
LAYER1
 10
3.1667
 20
1.6645
 30
0
 70
     0
  0
VERTEX
  8
LAYER1
 10
3.1667
 20
1.6784
 30
0
 70
     0
  0
SEQEND
  0
LINE
  8
LAYER1
  6
CONTINUOUS
 62
     7
 10
3.1667
 20
1.6784
 30
0
 11
3.1667
 21
2.4839
 31
0
  0
LINE
  8
LAYER1
  6
CONTINUOUS
 62
     7
 10
3.4444
 20
1.6228
 30
0
 11
3.2083
 21
1.6367
 31
0
  0
POLYLINE
  8
LAYER1
  6
CONTINUOUS
 62
     7
 66
     1
 70
     0
 40
0.0039
 41
0.0039
  0
VERTEX
  8
LAYER1
 10
3.125
 20
1.6784
 30
0
 70
     0
  0
VERTEX
  8
LAYER1
 10
3.125
 20
1.6645
 30
0
 70
     0
  0
VERTEX
  8
LAYER1
 10
3.125
 20
1.6645
 30
0
 70
     0
  0
VERTEX
  8
LAYER1
 10
3.1111
 20
1.6506
 30
0
 70
     0
  0
VERTEX
  8
LAYER1
 10
3.1111
 20
1.6367
 30
0
 70
     0
  0
VERTEX
  8
LAYER1
 10
3.0972
 20
1.6367
 30
0
 70
     0
  0
VERTEX
  8
LAYER1
 10
3.0833
 20
1.6367
 30
0
 70
     0
  0
SEQEND
  0
LINE
  8
LAYER1
  6
CONTINUOUS
 62
     7
 10
3.125
 20
1.6784
 30
0
 11
3.125
 21
2.4839
 31
0
  0
POLYLINE
  8
LAYER1
  6
CONTINUOUS
 62
     7
 66
     1
 70
     0
 40
0.0039
 41
0.0039
  0
VERTEX
  8
LAYER1
 10
2.8194
 20
1.5812
 30
0
 70
     0
  0
VERTEX
  8
LAYER1
 10
2.8194
 20
1.5812
 30
0
 70
     0
  0
VERTEX
  8
LAYER1
 10
2.8194
 20
1.5812
 30
0
 70
     0
  0
VERTEX
  8
LAYER1
 10
2.8333
 20
1.6089
 30
0
 70
     0
  0
VERTEX
  8
LAYER1
 10
2.8333
 20
1.6089
 30
0
 70
     0
  0
VERTEX
  8
LAYER1
 10
2.8333
 20
1.6089
 30
0
 70
     0
  0
VERTEX
  8
LAYER1
 10
2.8472
 20
1.6228
 30
0
 70
     0
  0
VERTEX
  8
LAYER1
 10
2.8611
 20
1.6228
 30
0
 70
     0
  0
SEQEND
  0
LINE
  8
LAYER1
  6
CONTINUOUS
 62
     7
 10
2.8611
 20
1.6228
 30
0
 11
3.0833
 21
1.6367
 31
0
  0
INSERT
  8
LAYER1
  2
Group22
 10
0
 20
0
 30
0
  0
ENDBLK
  8
LAYER1
  0
BLOCK
  8
LAYER1
  2
Group24
 70
     0
 10
0
 20
0
 30
0
  0
LINE
  8
LAYER1
  6
CONTINUOUS
 62
     7
 10
2.9028
 20
2.5395
 30
0
 11
2.9444
 21
2.5812
 31
0
  0
POLYLINE
  8
LAYER1
  6
CONTINUOUS
 62
     7
 66
     1
 70
     0
 40
0.0039
 41
0.0039
  0
VERTEX
  8
LAYER1
 10
5.7361
 20
6.3312
 30
0
 70
     0
  0
VERTEX
  8
LAYER1
 10
5.75
 20
6.3312
 30
0
 70
     0
  0
VERTEX
  8
LAYER1
 10
5.7639
 20
6.3173
 30
0
 70
     0
  0
VERTEX
  8
LAYER1
 10
5.7639
 20
6.3173
 30
0
 70
     0
  0
VERTEX
  8
LAYER1
 10
5.7778
 20
6.3034
 30
0
 70
     0
  0
VERTEX
  8
LAYER1
 10
5.7778
 20
6.2895
 30
0
 70
     0
  0
VERTEX
  8
LAYER1
 10
5.7778
 20
6.2895
 30
0
 70
     0
  0
VERTEX
  8
LAYER1
 10
5.7778
 20
6.2895
 30
0
 70
     0
  0
SEQEND
  0
POLYLINE
  8
LAYER1
  6
CONTINUOUS
 62
     7
 66
     1
 70
     0
 40
0.0039
 41
0.0039
  0
VERTEX
  8
LAYER1
 10
5.5
 20
6.3451
 30
0
 70
     0
  0
VERTEX
  8
LAYER1
 10
5.5
 20
6.3451
 30
0
 70
     0
  0
VERTEX
  8
LAYER1
 10
5.4861
 20
6.3451
 30
0
 70
     0
  0
VERTEX
  8
LAYER1
 10
5.4722
 20
6.3589
 30
0
 70
     0
  0
VERTEX
  8
LAYER1
 10
5.4722
 20
6.3589
 30
0
 70
     0
  0
VERTEX
  8
LAYER1
 10
5.4583
 20
6.3728
 30
0
 70
     0
  0
VERTEX
  8
LAYER1
 10
5.4583
 20
6.3867
 30
0
 70
     0
  0
SEQEND
  0
LINE
  8
LAYER1
  6
CONTINUOUS
 62
     7
 10
5.7361
 20
6.3312
 30
0
 11
5.5
 21
6.3451
 31
0
  0
POLYLINE
  8
LAYER1
  6
CONTINUOUS
 62
     7
 66
     1
 70
     0
 40
0.0039
 41
0.0039
  0
VERTEX
  8
LAYER1
 10
5.4167
 20
6.3867
 30
0
 70
     0
  0
VERTEX
  8
LAYER1
 10
5.4167
 20
6.3728
 30
0
 70
     0
  0
VERTEX
  8
LAYER1
 10
5.4167
 20
6.3728
 30
0
 70
     0
  0
VERTEX
  8
LAYER1
 10
5.4028
 20
6.3589
 30
0
 70
     0
  0
VERTEX
  8
LAYER1
 10
5.4028
 20
6.3451
 30
0
 70
     0
  0
VERTEX
  8
LAYER1
 10
5.3889
 20
6.3451
 30
0
 70
     0
  0
VERTEX
  8
LAYER1
 10
5.375
 20
6.3451
 30
0
 70
     0
  0
SEQEND
  0
POLYLINE
  8
LAYER1
  6
CONTINUOUS
 62
     7
 66
     1
 70
     0
 40
0.0039
 41
0.0039
  0
VERTEX
  8
LAYER1
 10
5.1111
 20
6.2895
 30
0
 70
     0
  0
VERTEX
  8
LAYER1
 10
5.1111
 20
6.2895
 30
0
 70
     0
  0
VERTEX
  8
LAYER1
 10
5.1111
 20
6.2895
 30
0
 70
     0
  0
VERTEX
  8
LAYER1
 10
5.125
 20
6.3173
 30
0
 70
     0
  0
VERTEX
  8
LAYER1
 10
5.125
 20
6.3173
 30
0
 70
     0
  0
VERTEX
  8
LAYER1
 10
5.125
 20
6.3173
 30
0
 70
     0
  0
VERTEX
  8
LAYER1
 10
5.1389
 20
6.3312
 30
0
 70
     0
  0
VERTEX
  8
LAYER1
 10
5.1528
 20
6.3312
 30
0
 70
     0
  0
SEQEND
  0
LINE
  8
LAYER1
  6
CONTINUOUS
 62
     7
 10
5.1528
 20
6.3312
 30
0
 11
5.375
 21
6.3451
 31
0
  0
LINE
  8
LAYER1
  6
CONTINUOUS
 62
     7
 10
5.1111
 20
6.2895
 30
0
 11
5.7778
 21
6.2895
 31
0
  0
LINE
  8
LAYER1
  6
CONTINUOUS
 62
     7
 10
5.6528
 20
6.2895
 30
0
 11
5.6944
 21
6.3312
 31
0
  0
LINE
  8
LAYER1
  6
CONTINUOUS
 62
     7
 10
5.5278
 20
6.2895
 30
0
 11
5.5694
 21
6.3451
 31
0
  0
LINE
  8
LAYER1
  6
CONTINUOUS
 62
     7
 10
5.3889
 20
6.2895
 30
0
 11
5.4722
 21
6.3728
 31
0
  0
LINE
  8
LAYER1
  6
CONTINUOUS
 62
     7
 10
5.25
 20
6.2895
 30
0
 11
5.3056
 21
6.3451
 31
0
  0
LINE
  8
LAYER1
  6
CONTINUOUS
 62
     7
 10
5.4167
 20
6.4562
 30
0
 11
5.4583
 21
6.4978
 31
0
  0
LINE
  8
LAYER1
  6
CONTINUOUS
 62
     7
 10
5.125
 20
6.2895
 30
0
 11
5.1667
 21
6.3312
 31
0
  0
LINE
  8
LAYER1
  6
CONTINUOUS
 62
     7
 10
5.4167
 20
6.5812
 30
0
 11
5.4583
 21
6.6228
 31
0
  0
LINE
  8
LAYER1
  6
CONTINUOUS
 62
     7
 10
5.4167
 20
6.7201
 30
0
 11
5.4583
 21
6.7617
 31
0
  0
LINE
  8
LAYER1
  6
CONTINUOUS
 62
     7
 10
5.6944
 20
6.2895
 30
0
 11
5.7361
 21
6.3312
 31
0
  0
LINE
  8
LAYER1
  6
CONTINUOUS
 62
     7
 10
5.5694
 20
6.2895
 30
0
 11
5.6111
 21
6.3312
 31
0
  0
LINE
  8
LAYER1
  6
CONTINUOUS
 62
     7
 10
5.4306
 20
6.2895
 30
0
 11
5.4861
 21
6.3451
 31
0
  0
LINE
  8
LAYER1
  6
CONTINUOUS
 62
     7
 10
5.3056
 20
6.2895
 30
0
 11
5.3472
 21
6.3451
 31
0
  0
LINE
  8
LAYER1
  6
CONTINUOUS
 62
     7
 10
5.4167
 20
6.4145
 30
0
 11
5.4583
 21
6.4562
 31
0
  0
LINE
  8
LAYER1
  6
CONTINUOUS
 62
     7
 10
5.1667
 20
6.2895
 30
0
 11
5.2083
 21
6.3312
 31
0
  0
LINE
  8
LAYER1
  6
CONTINUOUS
 62
     7
 10
5.4167
 20
6.5395
 30
0
 11
5.4583
 21
6.5812
 31
0
  0
LINE
  8
LAYER1
  6
CONTINUOUS
 62
     7
 10
5.4167
 20
6.6784
 30
0
 11
5.4583
 21
6.7201
 31
0
  0
LINE
  8
LAYER1
  6
CONTINUOUS
 62
     7
 10
5.4583
 20
6.3867
 30
0
 11
5.4583
 21
6.7895
 31
0
  0
ENDBLK
  8
LAYER1
  0
BLOCK
  8
LAYER1
  2
Group25
 70
     0
 10
0
 20
0
 30
0
  0
LINE
  8
LAYER1
  6
CONTINUOUS
 62
     7
 10
5.3333
 20
9.6645
 30
0
 11
5.5417
 21
9.8589
 31
0
  0
LINE
  8
LAYER1
  6
CONTINUOUS
 62
     7
 10
5.25
 20
9.7062
 30
0
 11
5.4861
 21
9.9423
 31
0
  0
LINE
  8
LAYER1
  6
CONTINUOUS
 62
     7
 10
5.2083
 20
9.8034
 30
0
 11
5.4028
 21
9.9839
 31
0
  0
LINE
  8
LAYER1
  6
CONTINUOUS
 62
     7
 10
5.375
 20
9.6506
 30
0
 11
5.5417
 21
9.8312
 31
0
  0
LINE
  8
LAYER1
  6
CONTINUOUS
 62
     7
 10
5.2778
 20
9.6923
 30
0
 11
5.5139
 21
9.9284
 31
0
  0
ENDBLK
  8
LAYER1
  0
BLOCK
  8
LAYER1
  2
Group26
 70
     0
 10
0
 20
0
 30
0
  0
POLYLINE
  8
LAYER1
  6
CONTINUOUS
 62
     7
 66
     1
 70
     0
 40
0.0039
 41
0.0039
  0
VERTEX
  8
LAYER1
 10
5.4167
 20
6.3867
 30
0
 70
     0
  0
VERTEX
  8
LAYER1
 10
5.4167
 20
6.7895
 30
0
 70
     0
  0
VERTEX
  8
LAYER1
 10
5.4583
 20
6.7895
 30
0
 70
     0
  0
SEQEND
  0
CIRCLE
  8
LAYER1
 10
5.3819
 20
9.8103
 30
0
 40
0.1736
  0
INSERT
  8
LAYER1
  2
Group25
 10
0
 20
0
 30
0
  0
LINE
  8
LAYER1
  6
CONTINUOUS
 62
     7
 10
5.2222
 20
9.7756
 30
0
 11
5.4306
 21
9.9839
 31
0
  0
CIRCLE
  8
LAYER1
 10
5.3819
 20
9.8103
 30
0
 40
0.1319
  0
CIRCLE
  8
LAYER1
 10
5.3819
 20
9.8103
 30
0
 40
0.1319
  0
ENDBLK
  8
LAYER1
  0
BLOCK
  8
LAYER1
  2
Group27
 70
     0
 10
0
 20
0
 30
0
  0
LINE
  8
LAYER1
  6
CONTINUOUS
 62
     7
 10
1.0139
 20
9.9839
 30
0
 11
0.6806
 21
9.9839
 31
0
  0
LINE
  8
LAYER1
  6
CONTINUOUS
 62
     7
 10
1
 20
9.6506
 30
0
 11
1.0139
 21
9.6645
 31
0
  0
LINE
  8
LAYER1
  6
CONTINUOUS
 62
     7
 10
0.875
 20
9.6506
 30
0
 11
0.9167
 21
9.6923
 31
0
  0
LINE
  8
LAYER1
  6
CONTINUOUS
 62
     7
 10
0.9722
 20
9.7617
 30
0
 11
1.0139
 21
9.8034
 31
0
  0
LINE
  8
LAYER1
  6
CONTINUOUS
 62
     7
 10
0.7361
 20
9.6506
 30
0
 11
0.7778
 21
9.6923
 31
0
  0
LINE
  8
LAYER1
  6
CONTINUOUS
 62
     7
 10
0.9722
 20
9.8867
 30
0
 11
1.0139
 21
9.9284
 31
0
  0
LINE
  8
LAYER1
  6
CONTINUOUS
 62
     7
 10
0.6806
 20
9.7339
 30
0
 11
0.7222
 21
9.7756
 31
0
  0
LINE
  8
LAYER1
  6
CONTINUOUS
 62
     7
 10
0.8889
 20
9.9423
 30
0
 11
0.9306
 21
9.9839
 31
0
  0
LINE
  8
LAYER1
  6
CONTINUOUS
 62
     7
 10
0.6806
 20
9.8728
 30
0
 11
0.7222
 21
9.9145
 31
0
  0
LINE
  8
LAYER1
  6
CONTINUOUS
 62
     7
 10
0.7639
 20
9.9423
 30
0
 11
0.8056
 21
9.9839
 31
0
  0
LINE
  8
LAYER1
  6
CONTINUOUS
 62
     7
 10
0.9167
 20
9.6506
 30
0
 11
0.9583
 21
9.6923
 31
0
  0
LINE
  8
LAYER1
  6
CONTINUOUS
 62
     7
 10
0.9722
 20
9.7201
 30
0
 11
1.0139
 21
9.7617
 31
0
  0
LINE
  8
LAYER1
  6
CONTINUOUS
 62
     7
 10
0.7778
 20
9.6506
 30
0
 11
0.8194
 21
9.6923
 31
0
  0
LINE
  8
LAYER1
  6
CONTINUOUS
 62
     7
 10
0.9722
 20
9.8451
 30
0
 11
1.0139
 21
9.8867
 31
0
  0
LINE
  8
LAYER1
  6
CONTINUOUS
 62
     7
 10
0.6806
 20
9.6923
 30
0
 11
0.7222
 21
9.7339
 31
0
  0
LINE
  8
LAYER1
  6
CONTINUOUS
 62
     7
 10
0.9444
 20
9.9423
 30
0
 11
0.9861
 21
9.9839
 31
0
  0
LINE
  8
LAYER1
  6
CONTINUOUS
 62
     7
 10
0.6806
 20
9.8173
 30
0
 11
0.7222
 21
9.8589
 31
0
  0
LINE
  8
LAYER1
  6
CONTINUOUS
 62
     7
 10
0.8056
 20
9.9423
 30
0
 11
0.8472
 21
9.9839
 31
0
  0
ENDBLK
  8
LAYER1
  0
BLOCK
  8
LAYER1
  2
Group28
 70
     0
 10
0
 20
0
 30
0
  0
POLYLINE
  8
LAYER1
  6
CONTINUOUS
 62
     7
 66
     1
 70
     0
 40
0.0039
 41
0.0039
  0
VERTEX
  8
LAYER1
 10
0.6806
 20
9.6506
 30
0
 70
     0
  0
VERTEX
  8
LAYER1
 10
1.0139
 20
9.6506
 30
0
 70
     0
  0
VERTEX
  8
LAYER1
 10
1.0139
 20
9.9839
 30
0
 70
     0
  0
SEQEND
  0
POLYLINE
  8
LAYER1
  6
CONTINUOUS
 62
     7
 66
     1
 70
     0
 40
0.0039
 41
0.0039
  0
VERTEX
  8
LAYER1
 10
0.9722
 20
9.9423
 30
0
 70
     0
  0
VERTEX
  8
LAYER1
 10
0.9722
 20
9.6923
 30
0
 70
     0
  0
VERTEX
  8
LAYER1
 10
0.7222
 20
9.6923
 30
0
 70
     0
  0
VERTEX
  8
LAYER1
 10
0.7222
 20
9.9423
 30
0
 70
     0
  0
VERTEX
  8
LAYER1
 10
0.9722
 20
9.9423
 30
0
 70
     0
  0
SEQEND
  0
LINE
  8
LAYER1
  6
CONTINUOUS
 62
     7
 10
0.6806
 20
9.9839
 30
0
 11
0.6806
 21
9.6506
 31
0
  0
INSERT
  8
LAYER1
  2
Group27
 10
0
 20
0
 30
0
  0
ENDBLK
  8
LAYER1
  0
BLOCK
  8
LAYER1
  2
Group29
 70
     0
 10
0
 20
0
 30
0
  0
POLYLINE
  8
LAYER1
  6
CONTINUOUS
 62
     7
 66
     1
 70
     0
 40
0.0039
 41
0.0039
  0
VERTEX
  8
LAYER1
 10
2.625
 20
9.8589
 30
0
 70
     0
  0
VERTEX
  8
LAYER1
 10
2.2917
 20
9.8589
 30
0
 70
     0
  0
VERTEX
  8
LAYER1
 10
2.2917
 20
9.6923
 30
0
 70
     0
  0
VERTEX
  8
LAYER1
 10
2.625
 20
9.6923
 30
0
 70
     0
  0
VERTEX
  8
LAYER1
 10
2.625
 20
9.8589
 30
0
 70
     0
  0
SEQEND
  0
LINE
  8
LAYER1
  6
CONTINUOUS
 62
     7
 10
2.5972
 20
9.6506
 30
0
 11
2.6667
 21
9.7339
 31
0
  0
LINE
  8
LAYER1
  6
CONTINUOUS
 62
     7
 10
2.4583
 20
9.6506
 30
0
 11
2.5
 21
9.6923
 31
0
  0
LINE
  8
LAYER1
  6
CONTINUOUS
 62
     7
 10
2.625
 20
9.8312
 30
0
 11
2.6667
 21
9.8728
 31
0
  0
LINE
  8
LAYER1
  6
CONTINUOUS
 62
     7
 10
2.3194
 20
9.6506
 30
0
 11
2.3611
 21
9.6923
 31
0
  0
LINE
  8
LAYER1
  6
CONTINUOUS
 62
     7
 10
2.5278
 20
9.8589
 30
0
 11
2.5694
 21
9.9006
 31
0
  0
LINE
  8
LAYER1
  6
CONTINUOUS
 62
     7
 10
2.25
 20
9.7201
 30
0
 11
2.2917
 21
9.7617
 31
0
  0
LINE
  8
LAYER1
  6
CONTINUOUS
 62
     7
 10
2.4028
 20
9.8589
 30
0
 11
2.4444
 21
9.9006
 31
0
  0
LINE
  8
LAYER1
  6
CONTINUOUS
 62
     7
 10
2.25
 20
9.8451
 30
0
 11
2.3056
 21
9.9006
 31
0
  0
LINE
  8
LAYER1
  6
CONTINUOUS
 62
     7
 10
2.6389
 20
9.6506
 30
0
 11
2.6667
 21
9.6923
 31
0
  0
LINE
  8
LAYER1
  6
CONTINUOUS
 62
     7
 10
2.5
 20
9.6506
 30
0
 11
2.5417
 21
9.6923
 31
0
  0
LINE
  8
LAYER1
  6
CONTINUOUS
 62
     7
 10
2.625
 20
9.7756
 30
0
 11
2.6667
 21
9.8173
 31
0
  0
LINE
  8
LAYER1
  6
CONTINUOUS
 62
     7
 10
2.375
 20
9.6506
 30
0
 11
2.4167
 21
9.6923
 31
0
  0
LINE
  8
LAYER1
  6
CONTINUOUS
 62
     7
 10
2.5833
 20
9.8589
 30
0
 11
2.625
 21
9.9006
 31
0
  0
LINE
  8
LAYER1
  6
CONTINUOUS
 62
     7
 10
2.25
 20
9.6784
 30
0
 11
2.2917
 21
9.7201
 31
0
  0
LINE
  8
LAYER1
  6
CONTINUOUS
 62
     7
 10
2.4444
 20
9.8589
 30
0
 11
2.4861
 21
9.9006
 31
0
  0
LINE
  8
LAYER1
  6
CONTINUOUS
 62
     7
 10
2.25
 20
9.8034
 30
0
 11
2.2917
 21
9.8451
 31
0
  0
ENDBLK
  8
LAYER1
  0
BLOCK
  8
LAYER1
  2
Group30
 70
     0
 10
0
 20
0
 30
0
  0
LINE
  8
LAYER1
  6
CONTINUOUS
 62
     7
 10
0.6806
 20
9.9562
 30
0
 11
0.7222
 21
9.9839
 31
0
  0
POLYLINE
  8
LAYER1
  6
CONTINUOUS
 62
     7
 66
     1
 70
     0
 40
0.0039
 41
0.0039
  0
VERTEX
  8
LAYER1
 10
2.25
 20
9.9006
 30
0
 70
     0
  0
VERTEX
  8
LAYER1
 10
2.6667
 20
9.9006
 30
0
 70
     0
  0
VERTEX
  8
LAYER1
 10
2.6667
 20
9.6506
 30
0
 70
     0
  0
VERTEX
  8
LAYER1
 10
2.25
 20
9.6506
 30
0
 70
     0
  0
VERTEX
  8
LAYER1
 10
2.25
 20
9.9006
 30
0
 70
     0
  0
SEQEND
  0
INSERT
  8
LAYER1
  2
Group29
 10
0
 20
0
 30
0
  0
ENDBLK
  8
LAYER1
  0
BLOCK
  8
LAYER1
  2
Group31
 70
     0
 10
0
 20
0
 30
0
  0
LINE
  8
LAYER1
  6
CONTINUOUS
 62
     7
 10
4.0278
 20
9.6923
 30
0
 11
4.0417
 21
9.7062
 31
0
  0
LINE
  8
LAYER1
  6
CONTINUOUS
 62
     7
 10
3.875
 20
9.6784
 30
0
 11
4.0556
 21
9.8451
 31
0
  0
LINE
  8
LAYER1
  6
CONTINUOUS
 62
     7
 10
3.8194
 20
9.7478
 30
0
 11
3.9722
 21
9.9006
 31
0
  0
LINE
  8
LAYER1
  6
CONTINUOUS
 62
     7
 10
3.9028
 20
9.6645
 30
0
 11
4.0556
 21
9.8173
 31
0
  0
ENDBLK
  8
LAYER1
  0
BLOCK
  8
LAYER1
  2
Group32
 70
     0
 10
0
 20
0
 30
0
  0
LINE
  8
LAYER1
  6
CONTINUOUS
 62
     7
 10
2.3194
 20
9.8589
 30
0
 11
2.3611
 21
9.9006
 31
0
  0
CIRCLE
  8
LAYER1
 10
3.9514
 20
9.7687
 30
0
 40
0.1319
  0
CIRCLE
  8
LAYER1
 10
3.9514
 20
9.7687
 30
0
 40
0.1319
  0
INSERT
  8
LAYER1
  2
Group31
 10
0
 20
0
 30
0
  0
LINE
  8
LAYER1
  6
CONTINUOUS
 62
     7
 10
3.8333
 20
9.7201
 30
0
 11
4
 21
9.8867
 31
0
  0
CIRCLE
  8
LAYER1
 10
3.9444
 20
9.7756
 30
0
 40
0.1111
  0
CIRCLE
  8
LAYER1
 10
3.9444
 20
9.7756
 30
0
 40
0.1111
  0
ENDBLK
  8
LAYER1
  0
BLOCK
  8
LAYER1
  2
Group33
 70
     0
 10
0
 20
0
 30
0
  0
LINE
  8
LAYER1
  6
CONTINUOUS
 62
     7
 10
1.2917
 20
4.0951
 30
0
 11
1.1528
 21
4.1089
 31
0
  0
LINE
  8
LAYER1
  6
CONTINUOUS
 62
     7
 10
1.2639
 20
4.0534
 30
0
 11
1.3056
 21
4.0951
 31
0
  0
LINE
  8
LAYER1
  6
CONTINUOUS
 62
     7
 10
1.1389
 20
4.0534
 30
0
 11
1.1806
 21
4.0951
 31
0
  0
LINE
  8
LAYER1
  6
CONTINUOUS
 62
     7
 10
1.0833
 20
4.1367
 30
0
 11
1.125
 21
4.1784
 31
0
  0
LINE
  8
LAYER1
  6
CONTINUOUS
 62
     7
 10
1.0833
 20
4.2617
 30
0
 11
1.125
 21
4.3034
 31
0
  0
LINE
  8
LAYER1
  6
CONTINUOUS
 62
     7
 10
1.0833
 20
4.4006
 30
0
 11
1.125
 21
4.4423
 31
0
  0
LINE
  8
LAYER1
  6
CONTINUOUS
 62
     7
 10
1.0833
 20
4.5256
 30
0
 11
1.125
 21
4.5673
 31
0
  0
LINE
  8
LAYER1
  6
CONTINUOUS
 62
     7
 10
1.2222
 20
4.6645
 30
0
 11
1.2639
 21
4.7201
 31
0
  0
LINE
  8
LAYER1
  6
CONTINUOUS
 62
     7
 10
1.0833
 20
4.6645
 30
0
 11
1.1389
 21
4.7201
 31
0
  0
LINE
  8
LAYER1
  6
CONTINUOUS
 62
     7
 10
1.3056
 20
4.0534
 30
0
 11
1.3194
 21
4.0673
 31
0
  0
LINE
  8
LAYER1
  6
CONTINUOUS
 62
     7
 10
1.1806
 20
4.0534
 30
0
 11
1.2222
 21
4.0951
 31
0
  0
LINE
  8
LAYER1
  6
CONTINUOUS
 62
     7
 10
1.0833
 20
4.0812
 30
0
 11
1.125
 21
4.1367
 31
0
  0
LINE
  8
LAYER1
  6
CONTINUOUS
 62
     7
 10
1.0833
 20
4.2201
 30
0
 11
1.125
 21
4.2617
 31
0
  0
LINE
  8
LAYER1
  6
CONTINUOUS
 62
     7
 10
1.0833
 20
4.3589
 30
0
 11
1.125
 21
4.4006
 31
0
  0
LINE
  8
LAYER1
  6
CONTINUOUS
 62
     7
 10
1.0833
 20
4.4839
 30
0
 11
1.125
 21
4.5256
 31
0
  0
LINE
  8
LAYER1
  6
CONTINUOUS
 62
     7
 10
1.2639
 20
4.6784
 30
0
 11
1.3056
 21
4.7201
 31
0
  0
ENDBLK
  8
LAYER1
  0
BLOCK
  8
LAYER1
  2
Group34
 70
     0
 10
0
 20
0
 30
0
  0
POLYLINE
  8
LAYER1
  6
CONTINUOUS
 62
     7
 66
     1
 70
     0
 40
0.0039
 41
0.0039
  0
VERTEX
  8
LAYER1
 10
1.3333
 20
4.7201
 30
0
 70
     0
  0
VERTEX
  8
LAYER1
 10
1.3333
 20
4.7201
 30
0
 70
     0
  0
VERTEX
  8
LAYER1
 10
1.3333
 20
4.7062
 30
0
 70
     0
  0
VERTEX
  8
LAYER1
 10
1.3333
 20
4.6923
 30
0
 70
     0
  0
VERTEX
  8
LAYER1
 10
1.3194
 20
4.6923
 30
0
 70
     0
  0
VERTEX
  8
LAYER1
 10
1.3056
 20
4.6784
 30
0
 70
     0
  0
VERTEX
  8
LAYER1
 10
1.3056
 20
4.6784
 30
0
 70
     0
  0
VERTEX
  8
LAYER1
 10
1.2917
 20
4.6784
 30
0
 70
     0
  0
SEQEND
  0
POLYLINE
  8
LAYER1
  6
CONTINUOUS
 62
     7
 66
     1
 70
     0
 40
0.0039
 41
0.0039
  0
VERTEX
  8
LAYER1
 10
1.125
 20
4.6228
 30
0
 70
     0
  0
VERTEX
  8
LAYER1
 10
1.125
 20
4.6228
 30
0
 70
     0
  0
VERTEX
  8
LAYER1
 10
1.1389
 20
4.6506
 30
0
 70
     0
  0
VERTEX
  8
LAYER1
 10
1.1389
 20
4.6506
 30
0
 70
     0
  0
VERTEX
  8
LAYER1
 10
1.1389
 20
4.6506
 30
0
 70
     0
  0
VERTEX
  8
LAYER1
 10
1.1528
 20
4.6645
 30
0
 70
     0
  0
VERTEX
  8
LAYER1
 10
1.1528
 20
4.6645
 30
0
 70
     0
  0
SEQEND
  0
LINE
  8
LAYER1
  6
CONTINUOUS
 62
     7
 10
1.2917
 20
4.6784
 30
0
 11
1.1528
 21
4.6645
 31
0
  0
LINE
  8
LAYER1
  6
CONTINUOUS
 62
     7
 10
1.0833
 20
4.7201
 30
0
 11
1.3333
 21
4.7201
 31
0
  0
POLYLINE
  8
LAYER1
  6
CONTINUOUS
 62
     7
 66
     1
 70
     0
 40
0.0039
 41
0.0039
  0
VERTEX
  8
LAYER1
 10
1.2917
 20
4.0951
 30
0
 70
     0
  0
VERTEX
  8
LAYER1
 10
1.3056
 20
4.0951
 30
0
 70
     0
  0
VERTEX
  8
LAYER1
 10
1.3194
 20
4.0812
 30
0
 70
     0
  0
VERTEX
  8
LAYER1
 10
1.3194
 20
4.0812
 30
0
 70
     0
  0
VERTEX
  8
LAYER1
 10
1.3333
 20
4.0673
 30
0
 70
     0
  0
VERTEX
  8
LAYER1
 10
1.3333
 20
4.0534
 30
0
 70
     0
  0
VERTEX
  8
LAYER1
 10
1.3333
 20
4.0534
 30
0
 70
     0
  0
VERTEX
  8
LAYER1
 10
1.3333
 20
4.0534
 30
0
 70
     0
  0
SEQEND
  0
POLYLINE
  8
LAYER1
  6
CONTINUOUS
 62
     7
 66
     1
 70
     0
 40
0.0039
 41
0.0039
  0
VERTEX
  8
LAYER1
 10
1.1528
 20
4.1089
 30
0
 70
     0
  0
VERTEX
  8
LAYER1
 10
1.1389
 20
4.1089
 30
0
 70
     0
  0
VERTEX
  8
LAYER1
 10
1.1389
 20
4.1089
 30
0
 70
     0
  0
VERTEX
  8
LAYER1
 10
1.125
 20
4.1367
 30
0
 70
     0
  0
VERTEX
  8
LAYER1
 10
1.125
 20
4.1506
 30
0
 70
     0
  0
SEQEND
  0
LINE
  8
LAYER1
  6
CONTINUOUS
 62
     7
 10
1.125
 20
4.6228
 30
0
 11
1.125
 21
4.1506
 31
0
  0
INSERT
  8
LAYER1
  2
Group33
 10
0
 20
0
 30
0
  0
ENDBLK
  8
LAYER1
  0
BLOCK
  8
LAYER1
  2
Group35
 70
     0
 10
0
 20
0
 30
0
  0
TEXT
  8
LAYER1
 62
     7
 10
2.5853
 20
0.0312
 30
0
 40
0.1389
  1
- 4-182 -
 50
0
999
Geneva
  0
INSERT
  8
LAYER1
  2
Group3
 10
0
 20
0
 30
0
  0
TEXT
  8
LAYER1
 62
     7
 10
4.5575
 20
3.6284
 30
0
 40
0.0833
  1
Amer. Std
 50
0
999
Geneva
  0
TEXT
  8
LAYER1
 62
     7
 10
4.4325
 20
3.4618
 30
0
 40
0.0833
  1
I Beam S Shape
 50
0
999
Geneva
  0
TEXT
  8
LAYER1
 62
     7
 10
4.2519
 20
3.8229
 30
0
 40
0.0833
  1
 I Beam S12x35" AS
 50
0
999
Geneva
  0
LINE
  8
LAYER1
  6
CONTINUOUS
 62
     7
 10
4.6806
 20
5.0117
 30
0
 11
4.7222
 21
5.0534
 31
0
  0
LINE
  8
LAYER1
  6
CONTINUOUS
 62
     7
 10
0.1806
 20
10.7478
 30
0
 11
4.6806
 21
10.7478
 31
0
  0
TEXT
  8
LAYER1
 62
     7
 10
0.1964
 20
10.5034
 30
0
 40
0.125
  1
Structural Steel - ANS Shapes - Misc.
 50
0
999
Geneva
  0
TEXT
  8
LAYER1
 62
     7
 10
0.5297
 20
7.9757
 30
0
 40
0.0833
  1
Square Bar
 50
0
999
Geneva
  0
TEXT
  8
LAYER1
 62
     7
 10
0.5297
 20
8.1701
 30
0
 40
0.0833
  1
Bar.Sqr 1"
 50
0
999
Geneva
  0
TEXT
  8
LAYER1
 62
     7
 10
1.0792
 20
8.1701
 30
0
 40
0.0833
  1
 
 50
0
999
Geneva
  0
LINE
  8
LAYER1
  6
CONTINUOUS
 62
     7
 10
0.1944
 20
10.4562
 30
0
 11
4.6944
 21
10.4562
 31
0
  0
POLYLINE
  8
LAYER1
  6
CONTINUOUS
 62
     7
 66
     1
 70
     0
 40
0.0039
 41
0.0039
  0
VERTEX
  8
LAYER1
 10
0.8333
 20
8.5395
 30
0
 70
     0
  0
VERTEX
  8
LAYER1
 10
0.9306
 20
8.5395
 30
0
 70
     0
  0
VERTEX
  8
LAYER1
 10
0.9306
 20
8.4423
 30
0
 70
     0
  0
VERTEX
  8
LAYER1
 10
0.8333
 20
8.4423
 30
0
 70
     0
  0
VERTEX
  8
LAYER1
 10
0.8333
 20
8.5395
 30
0
 70
     0
  0
SEQEND
  0
TEXT
  8
LAYER1
 62
     7
 10
2.2103
 20
7.9757
 30
0
 40
0.0833
  1
Flat Bar
 50
0
999
Geneva
  0
TEXT
  8
LAYER1
 62
     7
 10
2.0297
 20
8.1701
 30
0
 40
0.0833
  1
Bar.Flat 2x1"
 50
0
999
Geneva
  0
TEXT
  8
LAYER1
 62
     7
 10
2.7474
 20
8.1701
 30
0
 40
0.0833
  1
 
 50
0
999
Geneva
  0
TEXT
  8
LAYER1
 62
     7
 10
3.6269
 20
7.9757
 30
0
 40
0.0833
  1
Round Bar
 50
0
999
Geneva
  0
TEXT
  8
LAYER1
 62
     7
 10
3.3908
 20
8.1701
 30
0
 40
0.0833
  1
Bar.Round 1-1/4"
 50
0
999
Geneva
  0
TEXT
  8
LAYER1
 62
     7
 10
4.396
 20
8.1701
 30
0
 40
0.0833
  1
 
 50
0
999
Geneva
  0
TEXT
  8
LAYER1
 62
     7
 10
5.0714
 20
7.9757
 30
0
 40
0.0833
  1
Plate Bar
 50
0
999
Geneva
  0
TEXT
  8
LAYER1
 62
     7
 10
5.0714
 20
8.1701
 30
0
 40
0.0833
  1
Bar.Plate
 50
0
999
Geneva
  0
TEXT
  8
LAYER1
 62
     7
 10
5.5428
 20
8.1701
 30
0
 40
0.0833
  1
 
 50
0
999
Geneva
  0
INSERT
  8
LAYER1
  2
Group5
 10
0
 20
0
 30
0
  0
INSERT
  8
LAYER1
  2
Group6
 10
0
 20
0
 30
0
  0
INSERT
  8
LAYER1
  2
Group8
 10
0
 20
0
 30
0
  0
TEXT
  8
LAYER1
 62
     7
 10
0.6547
 20
5.7118
 30
0
 40
0.0833
  1
Angle 90
 50
0
999
Geneva
  0
TEXT
  8
LAYER1
 62
     7
 10
0.6825
 20
5.5451
 30
0
 40
0.0833
  1
3x3-3/8
 50
0
999
Geneva
  0
TEXT
  8
LAYER1
 62
     7
 10
0.613
 20
5.9479
 30
0
 40
0.0833
  1
Angle 90 a
 50
0
999
Geneva
  0
TEXT
  8
LAYER1
 62
     7
 10
1.2763
 20
5.9479
 30
0
 40
0.0833
  1
 
 50
0
999
Geneva
  0
INSERT
  8
LAYER1
  2
Group11
 10
0
 20
0
 30
0
  0
TEXT
  8
LAYER1
 62
     7
 10
1.6408
 20
5.7118
 30
0
 40
0.0833
  1
Angle 90
 50
0
999
Geneva
  0
TEXT
  8
LAYER1
 62
     7
 10
1.6686
 20
5.5451
 30
0
 40
0.0833
  1
4x3-1/2
 50
0
999
Geneva
  0
TEXT
  8
LAYER1
 62
     7
 10
1.6408
 20
5.9479
 30
0
 40
0.0833
  1
Angle 90 b
 50
0
999
Geneva
  0
INSERT
  8
LAYER1
  2
Group13
 10
0
 20
0
 30
0
  0
TEXT
  8
LAYER1
 62
     7
 10
2.7797
 20
3.6284
 30
0
 40
0.0833
  1
Amer. Std
 50
0
999
Geneva
  0
TEXT
  8
LAYER1
 62
     7
 10
2.5436
 20
3.4618
 30
0
 40
0.0833
  1
Channel MC Shape
 50
0
999
Geneva
  0
TEXT
  8
LAYER1
 62
     7
 10
2.6408
 20
3.8229
 30
0
 40
0.0833
  1
Channel MC AS
 50
0
999
Geneva
  0
INSERT
  8
LAYER1
  2
Group15
 10
0
 20
0
 30
0
  0
TEXT
  8
LAYER1
 62
     7
 10
0.7658
 20
1.1423
 30
0
 40
0.0833
  1
Wide Flange W Shape
 50
0
999
Geneva
  0
TEXT
  8
LAYER1
 62
     7
 10
0.9603
 20
1.3368
 30
0
 40
0.0833
  1
Wide Flange W
 50
0
999
Geneva
  0
TEXT
  8
LAYER1
 62
     7
 10
2.5853
 20
5.7118
 30
0
 40
0.0833
  1
Structural Tee
 50
0
999
Geneva
  0
TEXT
  8
LAYER1
 62
     7
 10
2.5436
 20
5.5451
 30
0
 40
0.0833
  1
(From W Shape)
 50
0
999
Geneva
  0
TEXT
  8
LAYER1
 62
     7
 10
2.6547
 20
5.9479
 30
0
 40
0.0833
  1
Struct.T (W)
 50
0
999
Geneva
  0
INSERT
  8
LAYER1
  2
Group16
 10
0
 20
0
 30
0
  0
TEXT
  8
LAYER1
 62
     7
 10
3.7936
 20
5.7118
 30
0
 40
0.0833
  1
Structural Tee
 50
0
999
Geneva
  0
TEXT
  8
LAYER1
 62
     7
 10
3.7658
 20
5.5451
 30
0
 40
0.0833
  1
(From S Shape)
 50
0
999
Geneva
  0
TEXT
  8
LAYER1
 62
     7
 10
3.863
 20
5.9479
 30
0
 40
0.0833
  1
Struct.T (S)
 50
0
999
Geneva
  0
INSERT
  8
LAYER1
  2
Group18
 10
0
 20
0
 30
0
  0
INSERT
  8
LAYER1
  2
Group19
 10
0
 20
0
 30
0
  0
INSERT
  8
LAYER1
  2
Group21
 10
0
 20
0
 30
0
  0
INSERT
  8
LAYER1
  2
Group23
 10
0
 20
0
 30
0
  0
TEXT
  8
LAYER1
 62
     7
 10
2.488
 20
1.1423
 30
0
 40
0.0833
  1
Misc. Shapes M Shape
 50
0
999
Geneva
  0
TEXT
  8
LAYER1
 62
     7
 10
2.6825
 20
1.3368
 30
0
 40
0.0833
  1
Misc.Shapes M
 50
0
999
Geneva
  0
TEXT
  8
LAYER1
 62
     7
 10
4.3214
 20
1.1423
 30
0
 40
0.0833
  1
Bearing Pile HP Shape
 50
0
999
Geneva
  0
TEXT
  8
LAYER1
 62
     7
 10
4.488
 20
1.3368
 30
0
 40
0.0833
  1
Bearing.Pile HP
 50
0
999
Geneva
  0
TEXT
  8
LAYER1
 62
     7
 10
5.0714
 20
5.7118
 30
0
 40
0.0833
  1
Stuctural T
 50
0
999
Geneva
  0
TEXT
  8
LAYER1
 62
     7
 10
4.9464
 20
5.5451
 30
0
 40
0.0833
  1
(from M Shape)
 50
0
999
Geneva
  0
TEXT
  8
LAYER1
 62
     7
 10
5.0575
 20
5.9479
 30
0
 40
0.0833
  1
Struct.T (M)
 50
0
999
Geneva
  0
INSERT
  8
LAYER1
  2
Group24
 10
0
 20
0
 30
0
  0
TEXT
  8
LAYER1
 62
     7
 10
5.238
 20
9.1979
 30
0
 40
0.0833
  1
Pipe
 50
0
999
Geneva
  0
TEXT
  8
LAYER1
 62
     7
 10
5.238
 20
9.3923
 30
0
 40
0.0833
  1
Pipe
 50
0
999
Geneva
  0
TEXT
  8
LAYER1
 62
     7
 10
0.363
 20
9.1979
 30
0
 40
0.0833
  1
Square Tubing
 50
0
999
Geneva
  0
TEXT
  8
LAYER1
 62
     7
 10
0.5019
 20
9.3923
 30
0
 40
0.0833
  1
Tubing.Sqr
 50
0
999
Geneva
  0
TEXT
  8
LAYER1
 62
     7
 10
1.8353
 20
9.1979
 30
0
 40
0.0833
  1
Rectangular Tubing
 50
0
999
Geneva
  0
TEXT
  8
LAYER1
 62
     7
 10
2.113
 20
9.3923
 30
0
 40
0.0833
  1
Tubing.Rect
 50
0
999
Geneva
  0
TEXT
  8
LAYER1
 62
     7
 10
3.4464
 20
9.1979
 30
0
 40
0.0833
  1
Circular Tubing
 50
0
999
Geneva
  0
TEXT
  8
LAYER1
 62
     7
 10
3.5714
 20
9.3923
 30
0
 40
0.0833
  1
Tubing.Circ
 50
0
999
Geneva
  0
INSERT
  8
LAYER1
  2
Group26
 10
0
 20
0
 30
0
  0
INSERT
  8
LAYER1
  2
Group28
 10
0
 20
0
 30
0
  0
INSERT
  8
LAYER1
  2
Group30
 10
0
 20
0
 30
0
  0
INSERT
  8
LAYER1
  2
Group32
 10
0
 20
0
 30
0
  0
TEXT
  8
LAYER1
 62
     7
 10
0.863
 20
3.6284
 30
0
 40
0.0833
  1
Amer. Std
 50
0
999
Geneva
  0
TEXT
  8
LAYER1
 62
     7
 10
0.6825
 20
3.4618
 30
0
 40
0.0833
  1
Channel C Shape
 50
0
999
Geneva
  0
TEXT
  8
LAYER1
 62
     7
 10
0.7658
 20
3.8229
 30
0
 40
0.0833
  1
Channel C AS
 50
0
999
Geneva
  0
INSERT
  8
LAYER1
  2
Group34
 10
0
 20
0
 30
0
  0
TEXT
  8
LAYER1
 62
     7
 10
0.1964
 20
0.0451
 30
0
 40
0.0833
  1
Scale 1in = 1ft  Printed at 70%
 50
0
999
Geneva
  0
TEXT
  8
LAYER1
 62
     7
 10
4.1686
 20
0.184
 30
0
 40
0.0833
  1
©1989,1990,1991,1992
 50
0
999
Geneva
  0
TEXT
  8
LAYER1
 62
     7
 10
4.0436
 20
0.0173
 30
0
 40
0.0833
  1
Advanced System Design, Inc.
 50
0
999
Geneva
  0
TEXT
  8
LAYER1
 62
     7
 10
0.6825
 20
9.0173
 30
0
 40
0.0833
  1
39400
 50
0
999
Geneva
  0
TEXT
  8
LAYER1
 62
     7
 10
2.2936
 20
9.0173
 30
0
 40
0.0833
  1
39401
 50
0
999
Geneva
  0
TEXT
  8
LAYER1
 62
     7
 10
3.6964
 20
9.0173
 30
0
 40
0.0833
  1
39402
 50
0
999
Geneva
  0
TEXT
  8
LAYER1
 62
     7
 10
5.1964
 20
9.0173
 30
0
 40
0.0833
  1
39403
 50
0
999
Geneva
  0
TEXT
  8
LAYER1
 62
     7
 10
0.6964
 20
7.8229
 30
0
 40
0.0833
  1
39404
 50
0
999
Geneva
  0
TEXT
  8
LAYER1
 62
     7
 10
2.1964
 20
7.8229
 30
0
 40
0.0833
  1
39405
 50
0
999
Geneva
  0
TEXT
  8
LAYER1
 62
     7
 10
3.6964
 20
7.8229
 30
0
 40
0.0833
  1
39406
 50
0
999
Geneva
  0
TEXT
  8
LAYER1
 62
     7
 10
5.1964
 20
7.8229
 30
0
 40
0.0833
  1
39407
 50
0
999
Geneva
  0
TEXT
  8
LAYER1
 62
     7
 10
0.7936
 20
5.4201
 30
0
 40
0.0833
  1
39408
 50
0
999
Geneva
  0
TEXT
  8
LAYER1
 62
     7
 10
1.6964
 20
5.4201
 30
0
 40
0.0833
  1
39409
 50
0
999
Geneva
  0
TEXT
  8
LAYER1
 62
     7
 10
2.8908
 20
5.4201
 30
0
 40
0.0833
  1
39410
 50
0
999
Geneva
  0
TEXT
  8
LAYER1
 62
     7
 10
3.988
 20
5.4201
 30
0
 40
0.0833
  1
39411
 50
0
999
Geneva
  0
TEXT
  8
LAYER1
 62
     7
 10
5.2936
 20
5.4201
 30
0
 40
0.0833
  1
39412
 50
0
999
Geneva
  0
TEXT
  8
LAYER1
 62
     7
 10
0.988
 20
3.3229
 30
0
 40
0.0833
  1
39413
 50
0
999
Geneva
  0
TEXT
  8
LAYER1
 62
     7
 10
2.8908
 20
3.3229
 30
0
 40
0.0833
  1
39414
 50
0
999
Geneva
  0
TEXT
  8
LAYER1
 62
     7
 10
4.7936
 20
3.3229
 30
0
 40
0.0833
  1
39415
 50
0
999
Geneva
  0
TEXT
  8
LAYER1
 62
     7
 10
1.0991
 20
0.9201
 30
0
 40
0.0833
  1
39416
 50
0
999
Geneva
  0
TEXT
  8
LAYER1
 62
     7
 10
2.8908
 20
0.9201
 30
0
 40
0.0833
  1
39417
 50
0
999
Geneva
  0
TEXT
  8
LAYER1
 62
     7
 10
4.7936
 20
0.9201
 30
0
 40
0.0833
  1
39418
 50
0
999
Geneva
  0
ENDBLK
  8
LAYER1
  0
ENDSEC
  0
SECTION
  2
ENTITIES
  0
INSERT
  8
LAYER1
  2
Group35
 10
0
 20
0
 30
0
  0
ENDSEC
  0
EOF
